» » »

Fear, Let's Have A War Tabs (ver.1)

Artists:  A B C D E F G H I J K L M N O P Q R S T U V W X Y Z # 

Let's Have A War Tabs (ver.1)

Fear Tabs
 Rating:
4/5 (4 votes)
Let's Have A War lessons Tabs too difficult? Try these video lessons and learn fast
1
                --------------------------------------------------------------------------------------------------
                                         Fear - Let's Have a War
--------------------------------------------------------------------------------------------------

I believe there are two guitars in this song but I tabbed it as one guitar because it 
can be played with one guitar.
The second guitar does the little licks in between the power chords, if you want to play 
it as two guitars.
Anyways I hope you guys enjoy the tab!
and as always please rate and comment, thanks!! :D
-ultimatelefty

Standard Tuning

Theres so many of us...

e|-------------------------------------------------------|
B|-------------------------------------------------------|
G|-------------------------------------------------------|
D|-4-4-4-4-4--5-5-5-5-5--6/7-7-7-7-7-6/7-7-7-7-7-6/7-7-7-|
A|-4-4-4-4-4--5-5-5-5-5--6/7-7-7-7-7-6/7-7-7-7-7-6/7-7-7-|
E|-2-2-2-2-2--3-3-3-3-3--4/5-5-5-5-5-4/5-5-5-5-5-4/5-5-5-|x2
PM . . . .    . . . .

LET'S HAVE A WAR!!

e|-----------10b--------------------------------|
B|----------------------------------------------|
G|-9-9-9-9-9-----7\6/7\6/7-9-9-9-9-9--7\6/7\6/7-|
D|-9-9-9-9-9-----7\6/7\6/7-9-9-9-9-9--7\6/7\6/7-|
A|-7-7-7-7-7-----5\4/5\4/5-7-7-7-7-7--5\4/5\4/5-|
E|----------------------------------------------|x2

e|-----------------------------------------------------------------10~-----------|
B|------------------------------------8b-8b-8b-----------------------------------|
G|-9-9-9-9-9------7\6/7\6/7-9-9-9-9-9----------7\6/7\6/7-9-9-9-9-9-----7\6/7\6/7-|
D|-9-9-9-9-9------7\6/7\6/7-9-9-9-9-9----------7\6/7\6/7-9-9-9-9-9-----7\6/7\6/7-|
A|-7-7-7-7-7-5\4~-5\4/5\4/5-7-7-7-7-7----------5\4/5\4/5-7-7-7-7-7-----5\4/5\4/5-|
E|-------------------------------------------------------------------------------|
Im not sure if ^ is the bass, so you can play it with or without

e|-------------------------------------|
B|-------------------------------------|
G|-9-9-9-9-9-9-9-9-9-9-9-9-9-9-9-9-9-9-|
D|-9-9-9-9-9-9-9-9-9-9-9-9-9-9-9-9-9-9-|
A|-7-7-7-7-7-7-7-7-7-7-7-7-7-7-7-7-7-7-|
E|-------------------------------------|
About that amount I think

Chorus:

It alr-eady, started in the city Suburbia!!!! Will be just as, easy!!!

e|-------------------------------------------------------------|
B|-------------------------------------------------------------|
G|------------------------------------------------------5------|
D|-------------------------x-5-------------6-7----6-7---5-5----|
A|-4/5~-0--4/5~-0--4/5~-0--x-5-----4/5~-0--4-5-0--4-5-0-3-5----|
E|-------------------------x-3--2~------------------------3-2b-|


Theres so many of us...

e|-------------------------------------------------------|
B|-------------------------------------------------------|
G|-------------------------------------------------------|
D|-4-4-4-4-4--5-5-5-5-5--6/7-7-7-7-7-6/7-7-7-7-7-6/7-7-7-|
A|-4-4-4-4-4--5-5-5-5-5--6/7-7-7-7-7-6/7-7-7-7-7-6/7-7-7-|
E|-2-2-2-2-2--3-3-3-3-3--4/5-5-5-5-5-4/5-5-5-5-5-4/5-5-5-|x2
PM . . . .    . . . .

LET'S HAVE A WAR!!

e|----------------------------------------------------------10~---------------|
B|-----------11~---------------------8~-------------------------10~-----------|
G|-9-9-9-9-9-----7\6/7\6/7-9-9-9-9-9----7\6/7\6/7-9-9-9-9-9---------7\6/7\6/7-|
D|-9-9-9-9-9-----7\6/7\6/7-9-9-9-9-9----7\6/7\6/7-9-9-9-9-9---------7\6/7\6/7-|
A|-7-7-7-7-7-----5\4/5\4/5-7-7-7-7-7----5\4/5\4/5-7-7-7-7-7---------5\4/5\4/5-|
E|----------------------------------------------------------------------------|

e|-----------10~-10----------------------------------------------------|
B|------------------10~-----------------------------------5/-----------|
G|-9-9-9-9-9------------9-9-9-9-9-----7\6/7\6/7-9-9-9-9-9----7\6/7\6/7-|
D|-9-9-9-9-9------------9-9-9-9-9-----7\6/7\6/7-9-9-9-9-9----7\6/7\6/7-|
A|-7-7-7-7-7------------7-7-7-7-7-7\--5\4/5\4/5-7-7-7-7-7----5\4/5\4/5-|
E|---------------------------------------------------------------------|

e|------------------------------------------------------------|
B|-----------8b-----------------------------------------------|
G|-9-9-9-9-9----7\6/7\6/7-9-9-9-9-9-9-9-9-9-9-9-9-9-9-9-9-9-9-|
D|-9-9-9-9-9----7\6/7\6/7-9-9-9-9-9-9-9-9-9-9-9-9-9-9-9-9-9-9-|
A|-7-7-7-7-7----5\4/5\4/5-7-7-7-7-7-7-7-7-7-7-7-7-7-7-7-7-7-7-|
E|------------------------------------------------------------|

Chorus:

It alr-eady, started in the city Suburbia!!!! Will be just as, easy!!!

e|-------------------------------------------------------------|
B|-------------------------------------------------------------|
G|------------------------------------------------------5------|
D|-------------------------x-5-------------6-7----6-7---5-5----|
A|-4/5~-0--4/5~-0--4/5~-0--x-5-----4/5~-0--4-5-0--4-5-0-3-5----|
E|-------------------------x-3--2~------------------------3-2b-|

Theres so many of us...

e|------------------------------------------------------------|
B|------------------------------------------------------------|
G|-11-11-11-11-11--9-9-9-9-9--9\7-7-7-7-7-9\7-7-7-7-7-9\7-7-7-|
D|-11-11-11-11-11--9-9-9-9-9--9\7-7-7-7-7-9\7-7-7-7-7-9\7-7-7-|
A|--9--9--9--9--9--7-7-7-7-7--7\5-5-5-5-5-7\5-5-5-5-5-7\5-5-5-|
E|------------------------------------------------------------|x2
PM  .  .  .  .     . . . .

e|---------------------------------|
B|---------------------------------|
G|-9\7-7-7-7-7-9\7-7-7-7-7-9\7-7-7-|
D|-9\7-7-7-7-7-9\7-7-7-7-7-9\7-7-7-|
A|-7\5-5-5-5-5-7\5-5-5-5-5-7\5-5-5-|
E|---------------------------------|

LET'S HAVE A WAR!!

e|-----------10b--------------------------------------------------------|
B|---------------------------------------------------------7~-----------|
G|-9-9-9-9-9-----7\6/7\6/7-9-9-9-9-9\--7\6/7\6/7-9-9-9-9-9----7\6/7\6/7-|
D|-9-9-9-9-9-----7\6/7\6/7-9-9-9-9-9\--7\6/7\6/7-9-9-9-9-9----7\6/7\6/7-|
A|-7-7-7-7-7-----5\4/5\4/5-7-7-7-7-7\--5\4/5\4/5-7-7-7-7-7----5\4/5\4/5-|
E|----------------------------------------------------------------------|


Im pretty sure there is a pickslide where there are the \'s on the A and E
e|--------------------------------------------------------------10b-----------|
B|--------------------------------8~------------------------------------------|
G|-9-9-9-9-9------------9-9-9-9-9-----------7\6/7\6/7-9-9-9-9-9-----7\6/7\6/7-|
D|-9-9-9-9-9-11-11p8----9-9-9-9-9-----------7\6/7\6/7-9-9-9-9-9-----7\6/7\6/7-|
A|-7-7-7-7-7---------\--7-7-7-7-7----5/-10/-5\4/5\4/5-7-7-7-7-7-----5\4/5\4/5-|
E|-------------------\--------------------------------------------------------|

e|-------------------------------------|
B|-------------------------------------|
G|-9-9-9-9-9-9-9-9-9-9-9-9-9-9-9-9-9-9-|
D|-9-9-9-9-9-9-9-9-9-9-9-9-9-9-9-9-9-9-|
A|-7-7-7-7-7-7-7-7-7-7-7-7-7-7-7-7-7-7-|
E|-------------------------------------|

Chorus:

It alr-eady, started in the city Suburbia!!!! Will be just as, easy!!!

e|-------------------------------------------------------------|
B|-------------------------------------------------------------|
G|------------------------------------------------------5------|
D|-------------------------x-5-------------6-7----6-7---5-5----|
A|-4/5~-0--4/5~-0--4/5~-0--x-5-----4/5~-0--4-5-0--4-5-0-3-5----|
E|-------------------------x-3--2~------------------------3-2b-|

Outro:

Theres so many of us...

e|-------------------------------------------------------|
B|-------------------------------------------------------|
G|-------------------------------------------------------|
D|-4-4-4-4-4--5-5-5-5-5--6/7-7-7-7-7-6/7-7-7-7-7-6/7-7-7-|
A|-4-4-4-4-4--5-5-5-5-5--6/7-7-7-7-7-6/7-7-7-7-7-6/7-7-7-|
E|-2-2-2-2-2--3-3-3-3-3--4/5-5-5-5-5-4/5-5-5-5-5-4/5-5-5-|x2
   . . . .    . . . .


e|---------------------------------------------------------------------------------|
B|---------------------------------------------------------------------------------|
G|-11-11-11-11-11--12-12-12-12-12--13/14-14-14-14-14-13/14-14-14-14-14-13/14-14-14-|
D|-11-11-11-11-11--12-12-12-12-12--13/14-14-14-14-14-13/14-14-14-14-14-13/14-14-14-|
A|--9--9--9--9--9--10-10-10-10-10--11/12-12-12-12-12-11/12-12-12-12-12-11/12-12-12-|
E|---------------------------------------------------------------------------------|x2
PM  .  .  .  .      .  .  .  .


And there it is!
Hopefully its good, otherwise you guys pretty much understand how to play it, Im not 
100% on all the licks, its hard to here some of them
Peace
Ultimatelefty
-------------------------------------------------------------------------
PM: Palm Mute
/ : Slide Up
\ : Slide Down
b : Bend
~ : Vibrato
            
Submit corrections

comments powered by Disqus
↑ Back to top | Fear Tabs for Let's Have A War. Lyrics for acoustic guitar and electric guitar. 1 Tablatures and chords are parodies/interpretations of the original songs. You may use it for private study, scholarship, research or language learning purposes only