» » »

I Love Livin' In The City Tabs (ver.1)

Artists:  A B C D E F G H I J K L M N O P Q R S T U V W X Y Z # 

I Love Livin' In The City Tabs (ver.1)

Fear
Rating:
0/5 (0 votes)

Hard to play? Try these video lessons and learn fast.
                INTRO/VERSE:
"My house smells just like the zoo..."
e|----------------------------------------------------------------------------------|
B|----------------------------------------------------------------------------------|
G|-7-7-7-7-7-7-7-7------------------------------------------------------------|
D|-7-7-7-7-7-7-7-7--8-8-8-8-8-8-8-8--------------------------------------|
A|-5-5-5-5-5-5-5-5--8-8-8-8-8-8-8-8---------------------------------------|
E|------------------6-6-6-6-6-6-6-6----------------------------------------|

CHORUS:
"I love livin' in the city"
e|-----------------------------------------------------------------------------------
B|-----------------------------------------------------------------------------------
G|-7-7-7-7-7-7-7-7-------------------10-10-10-10-10-10-10-10-10-10-10-10-10-10-10-10-
D|-7-7-7-7-7-7-7-7--8-8-8-8-8-8-8-8--10-10-10-10-10-10-10-10-10-10-10-10-10-10-10-10-
A|-5-5-5-5-5-5-5-5--8-8-8-8-8-8-8-8---8--8--8--8--8--8--8--8--8--8--8--8--8--8--8--8-
E|------------------6-6-6-6-6-6-6-6--------------------------------------------------

e|-----------------------------------------------------------------------------------
B|-----------------------------------------------------------------------------------
G|-7-7-7-7-7-7-7-7-------------------10-10-10-10-10-10-10-10--------------------
D|-7-7-7-7-7-7-7-7--8-8-8-8-8-8-8-8--10-10-10-10-10-10-10-10--8-8-8-8-8-8-8-8--------
A|-5-5-5-5-5-5-5-5--8-8-8-8-8-8-8-8---8--8--8--8--8--8--8--8--8-8-8-8-8-8-8-8--------
E|------------------6-6-6-6-6-6-6-6---------------------------6-6-6-6-6-6-6-6--------

SOLO:
Just Bending g and d!
            
Hard to play? Try these video lessons and learn fast. | Correct




comments powered by Disqus
↑ Back to top | Tablatures and chords are parodies/interpretations of the original songs. You may use it for private study, scholarship, research or language learning purposes only