» » »

Vom Truge Tabs (ver.1)

Artists:  A B C D E F G H I J K L M N O P Q R S T U V W X Y Z # 

Vom Truge Tabs (ver.1)

Faun
Rating:
0/5 (0 votes)

Hard to play? Try these video lessons and learn fast.
                Faun - Vom Truge


A
  b               esus2         b        F#   b
|---------------|---------2----|-----2-------|----------2--|
|---3-----2h3p2-|---5----------|---3---------|------3------|
|-----4---------|-----4-----4--|-4-----4---3-|-4------4----|
|---------------|-2-----2------|-4-----4-4---|-------------|
|-2-----2-2-----|--------------|-------------|-2-----------|
|---------------|--------------|---------2---|-------------|

B
  b               esus2         b        F#   b
|---------------|---------2----|-------------|-------------|
|---3-----2h3p2-|---5----------|-----3-------|-------------|
|-----4---------|-----4-----4--|---4-------3-|-4-----------|
|---------------|-2-----2------|-4-----4-4---|-------------|
|-2-----2-2-----|--------------|-------------|-2-----------|
|---------------|--------------|---------2---|-------------|

C 
  D             A             b             F#
|-------------|-------------|-------------|-----------------|
|-------------|-------------|-------------|-----------------|
|---------2---|---------2---|---------4---|-----------------|
|-----4-------|-----2-------|-----4-------|-4---------------|
|-5-----5---5-|-0-----0---0-|-2-----2---2-|-----------------|
|-------------|-------------|-------------|-2---------------|


Intro & Inderlude: A, B
Verse: A,B,C,B
            
Hard to play? Try these video lessons and learn fast. | Correct




comments powered by Disqus
↑ Back to top | Tablatures and chords are parodies/interpretations of the original songs. You may use it for private study, scholarship, research or language learning purposes only