» » »

Make It Rain 1 Tabs

Artists:  A B C D E F G H I J K L M N O P Q R S T U V W X Y Z # 

Make It Rain 1 Tabs

(ver. 2)
Fat Joe Tabs
 Rating:
4/5 (4 votes)
    Make It Rain lessons Tabs too difficult? Try these video lessons and learn fast
                Intro (x2)

e|---0---------------7-----6-----------------------6-----7---7---7---7-------|
B|-------7-----8-----------------8-----7-----8-------------------------------|
G|---------------------------------------------------------------------------|
D|---------------------------------------------------------------------------|
A|---------------------------------------------------------------------------|
E|---------------------------------------------------------------------------|

Main verse/chorus (x2)
e|---------------------------------------------------------------------------|
B|---5-----5--7--8----7----------------7-----5----3--------------------------|
G|-------------------------7-----6-------------------------------------------|
D|---------------------------------------------------------------------------|
A|---------------------------------------------------------------------------|
E|---------------------------------------------------------------------------|

Intro repeats after verse... this is how i belive the song goes... oh and one more 
this was my first tab so correct if u find or add something
            
Submit corrections

↑ Back to top | Fat Joe Tabs for Make It Rain. Lyrics for acoustic guitar and electric guitar. Tablatures and chords are parodies/interpretations of the original songs. You may use it for private study, scholarship, research or language learning purposes only