» » »

Fat Freddys Drop, Hope Tabs (ver.1)

Artists:  A B C D E F G H I J K L M N O P Q R S T U V W X Y Z # 

Hope Tabs (ver.1)

Fat Freddys Drop Tabs
 Rating:
4/5 (5 votes)
Hope lessons Tabs too difficult? Try these video lessons and learn fast
                This is my acoustic version of Hope.
A capo on the 3rd fret might make it easier (then play as if it were Em)

Intro:
e--------------6-------------------------------------------------|
B---------8-8~--8-------8-8~-------------------------------------|
G---------7-7~---7------7-7~-------------------------------------|
D---8~----8-8~----8-8---8-8~-------------------------------------|
A--12~--------------12-------------------------------------------|
E----------------------------------------------------------------|

                   Bb
Let your love flow down
                   Gm
Let it fall to the ground
                 Bb
Therein lies the roots
                 Gm
Reaching for the stream

            Bb
All I wanna do
                    Gm
Is keep on reaching through

Keep on reaching through
                      Bb
To the river wide and strong
              Gm
It won't take long
                Bb
We can all go together
                Gm
If we just hold on
  Bb
A new generation

And a brand new age
        Gm
I wanna fall like rain

On burning pages
Bb
Rise from the ashes

Like a phoenix sun
Gm
Learning to flow

Searching for love


Bb
You know that I can't get enough of

e--6-------------|
B---8------------|
G----7-----------|
D-----8-8--------|
A-------12-------|
E----------------|

                   Bb
Get enough of that hope
Bb   Ab   Bb
Oooh oooh oooh
Bb
Bb   Ab   Gmaj
Oooh oooh oooh


Bb
And hope

And hope, yeah
    Gm
And hope, yeah yeah

fill:
e--------------|
B--3-----------|
G--3-5-3---3---|
D--5-----5-----|
A--------------|
E--3-----------|

Bb
Hope, hey
Gm
Hope, hey heh
Bb
I want my child
   Gm                            Bb
To see the beauty of this place
                 Gm                        Bb
To walk from the mountains, to the sea

***Continue with the B and Gm, throw in some bass lines from the G to the Bb
***Basically add some fills in Gm pentatonic, spice it up:
And hope
And hope, yeah
And hope, yeah yeah
And hope, yeah yeah
And hope, hope... yeah, yeah
Oh love baby, hope baby
And oh oh oh, yeah yeah

Bb
You know that I can't get enough of

               "Get enough of that hope"
e--6---------------------------------6------|
B---8--------------------------------6------|
G----7-------------------------------7------|
D-----8/7----------------------------8------|
A------------------------------------8------|
E---------------------------3-/-6----6------|
                          (slide up)
Bb   Ab   Bb
Oooh oooh oooh
Bb
Bb   Ab   G
Oooh oooh yeah yay
Bb
Bb   Ab   Bb
Oooh oooh
Bb
Bb  Ab  G
A-yeah-yay

Fill for next part:
    Bb             Gmadd2
e---6-3----------------------------------------------------------|
B-------6-4b3-------------6--------------------------------------|
G-------------5-3--2-2~/3---3-2~3/5-0----------------------------|
D-------------------------------------3-3~-----------------------|
A----------------------------------------------------------------|
E---6~~~~~---------3-3~~~~~--------------------------------------|
                          "You know that I can't get enough of"

You know that I can't get enough of
You know that I can't get enough of
You know that I can't get enough of

Keep on, keep on

        Bb          Gm
I wanna promise you hope for a generation

Hope for a generation
        Bb
I wanna promise you
            
Submit corrections

comments powered by Disqus
↑ Back to top | Fat Freddys Drop Tabs for Hope. Lyrics for acoustic guitar and electric guitar. Tablatures and chords are parodies/interpretations of the original songs. You may use it for private study, scholarship, research or language learning purposes only