» » »

Fat Freddys Drop, Grounded Tabs (ver.1)

Artists:  A B C D E F G H I J K L M N O P Q R S T U V W X Y Z # 

Grounded Tabs (ver.1)

Fat Freddys Drop Tabs
Rating:
0/5 (0 votes)
Grounded lessons Tabs too difficult? Try these video lessons and learn fast
                Album:

Intro Riff:
E----------------------------------------------------------------|
B----------------------------------------------------------------|
G--3---3-3---5---------------------------------------------------|
D--3---------5---5-5/6----6-3~-----------3-----------------------|
A--1-1-------3-3------4-----4~---4-4-4-6-------------------------|
E----------------------------------------------------------------|
                                          For the

Verse:
E----------------------------------------------------------------|
B------3--xx-3-------4--xx------4--xx4--xx4--xx4--xx4------------|
G------1--xx-1-------5--xx------6--xx6--xx6--xx6--xx6------------|
D----3-3--xx-3-----5-5--xx----6-6--xx6--xx6--xx6--xx6------------|
A--1---1--xx-1---3---3--xx--4---4--xx4--xx4--xx4--xx4------------|
E----------------------------------------------------------------|
  rain...    up...          range...        I see how far it
  goes...    there's...     dark clouds...         there's a
  way...     waiting        I can see the street-


E----------------------------------------------------------------|
B----------------------------------------------------------------|
G--3---3-3---5---------------------------------------------------|
D--3---------5---5-5/6----6-3~-----------3-----------------------|
A--1-1-------3-3------4-----4~---4-4-4-6-------------------------|
E----------------------------------------------------------------|
  lights...                              say I'm


Chorus:
   Bb                Cm                    C#sus2
E----------------------------------------------------------------|
B--------------------4---------------------4---------------------|
G--3-----------------5---------------------6---------------------|
D--3-----------------5---------------------6---------------------|
A--1-----------------3---------------------4---------------------|
E----------------------------------------------------------------|
   Not gonna let the world try to bring me down...

Lyrics:

Verse:
For the Rain
Up the mountain to the top up of the range
I see how far it goes
There's an end to a sea of dark clouds moving in me
There's a way
In the distance waiting for me
I can see the streetlight

Chorus:
Say I'm not gonna let the world try to bring me down
(those days have gone)
Say I'm may not make it all the way but I'm glad I came along
it might push you to the limit
it might tear your world apart if you let it
Oh no people when will you come around
the world is just a stone to keep you grounded
grounded

Verse:
There's got to be a way to make it
I stumble every day but I never
see the bigger picture only pieces of a puzzle
it's a long way and I know it all depends on me
Say oh what will I be (when there aint no one to tell me what I wanna know)

End Chorus:
Say I'm not gonna let the world try to bring me down
x2
Oh be a little wiser
Oh be a little stronger
Take a little longer
Patience patience they say it is the key
patience patience is the key for me
            

comments powered by Disqus
↑ Back to top | Fat Freddys Drop Tabs for Grounded. Lyrics for acoustic guitar and electric guitar. Tablatures and chords are parodies/interpretations of the original songs. You may use it for private study, scholarship, research or language learning purposes only