» » »

Fat Freddys Drop, Flashback Bass tabs (ver.1)

Artists:  A B C D E F G H I J K L M N O P Q R S T U V W X Y Z # 

Flashback Bass tabs (ver.1)

Fat Freddys Drop Tabs
 Rating:
4/5 (5 votes)
Flashback lessons Tabs too difficult? Try these video lessons and learn fast
1
                heyy,   this is my first tab, but im pretty sure its rite :D this is my fravorite band
to add or corrections or watever.

standar tuning


This song has sum funky timing on it  for some reason the bass is just slightly behind
thing else, which sounds pretty kewl but makes it a pain in the arse to play in time,
can just play in time with every thing else and it works but sounds much better the way 
play it
It sort of builds up to the main bit gradually, listen to the song and ull work it out
enough.

G|----------------------------|
D|--3--3----------------------|
A|----------------------------| X2
E|----------------------------|
Comes in at 0:19


G|----------------------------|
D|--3--3----------------------|
A|----------------------------|  X1
E|--------------------0-------|


G|----------------------------|
D|--3--3----------------------|
A|----------------------------| X1
E|-----------------4----0-----|


G|----------------------------|
D|--3--3----------------------|
A|------(0)-4--4--------------| X1
E|-----------------4----0-----|


Just repeat this for the duration of the song and listen for the rests
            
Submit corrections

comments powered by Disqus
↑ Back to top | Fat Freddys Drop Bass for Flashback. Lyrics for acoustic guitar and electric guitar. 1 Tablatures and chords are parodies/interpretations of the original songs. You may use it for private study, scholarship, research or language learning purposes only