» » »

Fatboy Slim, Push The Tempo Tabs (ver.2)

Artists:  A B C D E F G H I J K L M N O P Q R S T U V W X Y Z # 

Push The Tempo Tabs (ver.2)

Fatboy Slim Tabs
 Rating:
4/5 (4 votes)
Push The Tempo lessons Tabs too difficult? Try these video lessons and learn fast
1
                -------------------------------------------------------------------------------
                             Push The Tempo - Fatboy Slim
-------------------------------------------------------------------------------

Tuning: standard

e|-------------------------------|
B|-------------------------------|
G|-------------------------------|
D|-------------------------------|
A|---------7------10-------5-----|
E|---5--5--5--5-8--8--8-3--3-----|
     .  .     . .     . .

or you can play also:

e|-------------------------------|
B|-------------------------------|
G|-------------------------------|
D|---7--7--7--x-x-10--x-x--5-----|
A|---7--7--7--x-x-10--x-x--5-----|
E|---5--5--5--x-x--8--x-x--3-----|
     .  .

but imo 1st sounds better :)

| .  palm muting
| x  Mute note
===============================================================================
            
Submit corrections

comments powered by Disqus
↑ Back to top | Fatboy Slim Tabs for Push The Tempo. Lyrics for acoustic guitar and electric guitar. 1 Tablatures and chords are parodies/interpretations of the original songs. You may use it for private study, scholarship, research or language learning purposes only