» » »

Post Punk Progression Bass tabs (ver.1)

Artists:  A B C D E F G H I J K L M N O P Q R S T U V W X Y Z # 

Post Punk Progression Bass tabs (ver.1)

Fatboy Slim
Rating:
0/5 (0 votes)

Hard to play? Try these video lessons and learn fast.
                FATBOY SLIM - POST PUNK PROGRESSION


VERSE

E -----------------------------------------|
A ---9-11----11-9-11-12-13---7-------7-8-9-|
D --------7----------------9---------------|
G -----------------------------------------|


E -----------------------------------------|
A ---9-11--(7)--11-9-11-12-13---7----7-8-9-|
D --------7----------------9---------------|
G -----------------------------------------|

!!!!!!!!!!!!!!!!!!!!!!!!!!!!!!!!!!!!!!!!!!!!!!!!!!!!!!!!!!!!!!!!

JAH WOBBLE IS GOD!
NORMAN COOK YET)
            
Hard to play? Try these video lessons and learn fast. | Correct




comments powered by Disqus
↑ Back to top | Tablatures and chords are parodies/interpretations of the original songs. You may use it for private study, scholarship, research or language learning purposes only