>
 >
 >
Pull

Pull Guitar Tabs

Fat - Pull chords, tabs, tablatures, lyrics

Guitar lessons | Add/correct | Request | Top 50 tabs Artists:  A B C D E F G H I J K L M N O P Q R S T U V W X Y Z 0-9

Pull Guitar Tabs – Fat

CD, Sheet music, Poster

Do you like Pull? Share with your friends now
Tabs
intro

e :-----------------|-----------------|-----------------|-----------------|
B :----7-------7----|----7-----7------|----7-----7------|-----------------|
G :--5-----5-5------|--5---5-5--------|--5--5-5---------|-----------------|
D :-----------------|-----------------|-----------------|-----------------|
A :-----------------|-----------------|-----------------|-----------------|
E :-----------------|-----------------|-----------------|-----------------|

verse

e :---------------------|
B :---------------------|
G :---------------------|
D :-/7-7-7-7-7-7-7/8/7--|
A :-/--x-x-x-x-x-x/-/x--|
E :-/5-5-5-5-5-5-5/6/5--|
 P.M. . . . . . . . . . . . 



chorus

e :-------------------------------------------------------------|
B :-------------------------------------------------------------|
G :-6--6-6---6--6-6----------------------6--6-6---6-6-6/7-8-9---|
D :-x--x-x---x--x-x----------------------x--x-x---x-x-x/--x-x---|
A :-4--4-4---4--4-4---7---6---5---4------4--4-4---4-4-4/5-6-7---|
E :---------------------5---4---3---2---------------------------|



Be sure to check my other FAT tabs!





Comments


Popular Fat tabs & chords
Corner Song Chords
Dog Tabs
Downtime Tabs
New Birth Tabs
Corner Song Ukulele


Song lyrics



↑ Back to top | Tablatures and chords are parodies/interpretations of the original songs. You may use it for private study, scholarship, research or language learning purposes only
© 2014 AZChords.com Contact us | Privacy policy | DMCA | Add/correct tabs | Request tabs | Top 50 tabs