>
 >
Webecome Pne

Webecome Pne Guitar Tabs

Fastway - Webecome Pne chords, tabs, tablatures, lyrics

Guitar lessons | Add/correct | Request | Top 50 tabs Artists:  A B C D E F G H I J K L M N O P Q R S T U V W X Y Z 0-9

Webecome Pne Guitar Tabs – Fastway

CD, Sheet music, Poster

Do you like Webecome Pne? Share with your friends now
Tabs
-------------------------------------------------------------------------------
                         We become one - Fastway
-------------------------------------------------------------------------------

Tuning: standard
| \  slide down                         | x  Mute note
| /  slide up                           | p  pull-off
| ~  vibrato                            | h  hammer-on
| +  harmonic                           | b  bend 
=============================================================================== 
           Intro/verse 1                   verse 2                end 1
  [.play 4 times.]  [.play 4 times.]         
e|---------------------------------|------------------------|-------------------|
B|---------------------------------|------------------------|-------------------|
G|-7/9-9------------7/9-9-------7--|------------------------|-------------------|
D|-7/9-9----5-4-----7/9-9-----5-7--|------------------------|----5---7----------|
A|-5/7-7-5h7----5~--5/7-7-5h7---5--|-9-99-11p9-99-9-99-11p9-|----5---7----------|
E|---------------------------------|-7-77-7----77-7-77-7----|----3---5----------|
      
       bridge           verse 3                    end 2
 [...play 8 times...]
e|------------------|-------------|---------------------------------------------|
B|------------------|-------------|---------------------------------------------|
G|-7/9--------11-12-|-------------|-------------------------------22-2-2-22-4-5-|
D|-7/9-9-9-9--11-12-|---------6-7-|----4~---4~---2-4p2-----2-4p2--22-2-2-22-4-5-|
A|-5/7-7-7-7--9--10-|-77-7-77-4-5-|-----------2h4-----4-2h4-----4-00-0-0-00-2-3-|
E|-----0-0-0--------|-00-0-00-----|-2-2--2-2------------------------------------|
   solo
e|---------12--------------------------------------------------12---------12-12-|
B|-15b-15b~--15-12---12-15---12----------12--12--12--12-15b15b~--15p12-15b------|
G|----------------14b-----14b--14-12~--14b-14b-14b-14b--------------------------|
D|------------------------------------------------------------------------------|
A|------------------------------------------------------------------------------|
E|------------------------------------------------------------------------------|

e|------------------------------------------------------------------------------|
B|-15-12-12----12-12------------------------------------------------------------|
G|----------14b-----14-12-12--14p12-11-12p11------9p7--9p7--9p7--9p7------------|
D|------------------------------------------14-12~---9----9----9----9-9b9b-p7---|
A|---------------------------------------------------------------------------9~-|
E|------------------------------------------------------------------------------|
                                                            Return to bridge
e|-----------------------------------------------/------------------------------|
B|----------------------------------------------/-------------------------------|
G|------2-4p2-2~2-4b4-2-2-2---22-2-2-22-4-5----/-pick-slide---------------------|
D|----4~-----4---------4---4~-22-2-2-22-4-5---/---------------------------------|
A|----------------------------00-0-0-00-2-3--/----------------------------------|
E|-2-2--------------------------------------/-----------------------------------|
Ending 3-
e|------------------------------------------------------------------------------|
B|--------------------------------------------9\7-----9\7-------9\7---------9\7-|
G|--------------------------------------------9\7-----9\7-------9\7--7-9----9\7-|
D|-5-7-5-7-5-7-5-7----------------------------7\5-----7\5-------7\5--7-9----7\5-|
A|-5-7-5-7-5-7-5-7-555555555-22222222222-77-77-----------------------5-7--------|
E|-3-5-3-5-3-5-3-5-333333333-00000000000-00-00---00-00-----00-00----0----000----|

Intro  play  2 times
Verse lick 1
Summer night is ending we four become one
Verse lick 1
to tackle new endeavors our work has just begun
Verse Lick 2
you may find us with a hard hittin' view
Verse Lick 2 with End 1
leave us to our own devices we've got our work to do
Verse lick 1
fool for the plenty that's what's been said
Verse lick 1
worse luck to find your dreams drifting far away
Verse Lick 2
you may find us with a hard hittin' view leave us to our own devices
Verse Lick 2 with End 1
we've got our work to do
Bridge
Verse Lick 3
The shape now of things run these days it may seem
Verse Lick 3
strangled like their chords
End lick 2 
with masks and chains they sell in vain yes, to please, the falling hoards
Bridge
we become one
Verse Lick 3
now i have seen all the good that we breathe intent do no wrong
End lick 2 
just wait and see your wicked greed it will fall to our new song
Bridge
we become one
Solo
Bridge
Verse Lick 3
stopped in your tracks by alarming degree fleeing for their cause
End lick 2 
don't let them stop you or they'll find a way to destroy what you have done
Verse lick 1
summer nigh is ending we four become one to tackle new endeavors
Ending 3
Our work has just begun 





Comments


Popular Fastway tabs & chords
All I Need Is Your Love Bass Tabs
Another Day Bass Tabs
The Stranger Bass Tabs
The Strangerartist:Fastway Bass Tabs
Dont Stop The Fight Tabs
Easy Livin' Tabs
Say What You Will Tabs
Say What You Will 1 Tabs
Trick Or Treat Intro Tabs


Song lyrics



↑ Back to top | Tablatures and chords are parodies/interpretations of the original songs. You may use it for private study, scholarship, research or language learning purposes only
© 2014 AZChords.com Contact us | Privacy policy | DMCA | Add/correct tabs | Request tabs | Top 50 tabs