» » »

Fastway, The Stranger Bass tabs (ver.1)

Artists:  A B C D E F G H I J K L M N O P Q R S T U V W X Y Z # 

The Stranger Bass tabs (ver.1)

Fastway Tabs
 Rating:
4/5 (4 votes)
The Stranger lessons Tabs too difficult? Try these video lessons and learn fast
                Album:All Fired Up

                                                                 
  Intro 
G--------|------------------------------------------------------|
D--------|------------------------------------------------------|
A--------|---------------0--0-0-0-0----------------5-4-2-0------|
E--------|-3-0--0-0-0-0--------------3-0--0-0-0-0-----------3-0-|
                                                                 
                                            
    
G------------------------------------------|
D------------------------------------------|
A------------0--0-0-0-0\--0--------------2-|
E---0-0-0-0------------------0--0-0-0-0----|
                                            
                                                         
  Look At Her Vision 
G-------------------------------------------------------|
D-----------------------------------------------7-7-----|
A---0--0-0-0-0\--4--4-4-4-4--2--2-2-2-2--0--7-9-----9-7-|
E-------------------------------------------------------|
                                                         
                                                          
   
G--------------------------------------------------------|
D--------------------------------------------------------|
A---0--0-0-0-0\--4--4-4-4-4--2--2-2-2-2--0---------------|
E-------------------------------------------3-0--0-0-0-0-|
                                                          
                                                                      
    
G--------------------------------------------------------------------|
D--------------------------------------------------------------------|
A---0--0-0-0-0----------------5-4-2-0----------------0-0-0-0-0\-0----|
E---------------3-0--0-0-0-0-----------3-0--0-0-0-0----------------0-|
                                                                      
                                                                        
  But I've Seen Her Face 
G----------------------------------------------------------------------|
D----------------------------------------------------------------------|
A---2--2-2-2--2-2-2--2-2-2--2-2-2--2-2-2-----------------------4-2-----|
E-----------------------------------------0--0-0-0-0-0-0-0-0-0-----0-2-|
                                                                        
                                                               
   
G-------------------------------------------------------------|
D-------------------------------------------------------------|
A---0--0-0-0-0\--4--4-4-4-4--2--2-2-2-2--2-4-5--4--2--4-2-0-0-|
E-------------------------------------------------------------|
                                                               
                                                         
  Lead 
G-------------------------------------------------------|
D-----------------------------------------------7-7-----|
A---0--0-0-0-0\--4--4-4-4-4--2--2-2-2-2--0--7-9-----9-7-|
E-------------------------------------------------------|
                                                         
                                                    
                                          Lead Ends
G--------------------------------------------------|
D--------------------------------------------------|
A---0--0-0-0-0\--4--4-4-4-4--------------2--0------|
E----------------------------3--3-3-3-3--------3-0-|
                                                    
                                                              
  
G------------------------------------------------------------|
D------------------------------------------------------------|
A------------0--0-0-0-0----------------5-4-2-0---------------|
E---0-0-0-0--------------3-0--0-0-0-0-----------3-0--0-0-0-0-|
                                                              
                           
    
G-------------------------|
D-------------------------|
A---0--0-0-0-0\---0-----2-|
E--------------------0----|
                           
                                                                    
      Outro 
G---|--------------------------------------------------------------|
D---|*---------------------------------------3-2-------------------|
A---|*-------------3--3-3-3-3--1-----------------5-3--1------------|
E---|--3--3-3-3-3----------------3--3-3-3-3-------------3--3-3-3-3-|
                                                                    
                                                    
                               2x/Fade Out On 3rd
G------------------------------------------------|
D-----------------------------------------------*|
A---3--3-3-3-3\--3------------------------------*|
E-------------------3-3--3-3-3--3-3-3--3-3-3--3--|
            
Submit corrections

comments powered by Disqus
↑ Back to top | Fastway Bass for The Stranger. Lyrics for acoustic guitar and electric guitar. Tablatures and chords are parodies/interpretations of the original songs. You may use it for private study, scholarship, research or language learning purposes only