» » »

Fastway, Dont Stop The Fight Tabs (ver.1)

Artists:  A B C D E F G H I J K L M N O P Q R S T U V W X Y Z # 

Dont Stop The Fight Tabs (ver.1)

Fastway Tabs
 Rating:
4/5 (4 votes)
Dont Stop The Fight lessons Tabs too difficult? Try these video lessons and learn fast
                                             Don't Stop The Fight - Fastway
-------------------------------------------------------------------------------

This is my own interpretation of the song

Tuning:Standard 

Intro played 8 times (Muted slightly with palm)
e|0--0--0--0--0--------------------------------------------------------------|
B|-3--3--3--3--3-------------------------------------------------------------|
G|--2--2--2--2--2------------------------------------------------------------|
D|---------------------------------------------------------------------------|
A|---------------------------------------------------------------------------|
E|---------------------------------------------------------------------------|

e|--------------------------22-2-22-2----------22-2-22-2---------------------|
B|2--22---------2-22--------33-3-33-3-2--------33-3-33-3-5-------------------|
G|2--22---------2-22--------22-2-22-2-2--------22-2-22-2-4-------------------|
D|2--22--3-33---2-22--3-33--00-0-00-0-2--------00-0-00-0-2-------------------|
A|0--00--3-33---0-00--3-33------------0-320-02-----------2-------------------|
E|-----0-1-11-0-----0-1-11-0---------------3-------------0-------------------|

Chorus
e|---------------------------------------------------------------------------|
B|2-----------------2-----------------2-5------------------------------------|
G|2-55-4~55-4-2-0---2-55-4~55-4-2-0---2-4------------------------------------|
D|2-55-4~55-4-2-0-3-2-55-4~55-4-2-0-3-2-2------------------------------------|
A|0---------------3-0---------------3-0-2------------------------------------|
E|----------------1-----------------1---0------------------------------------|

Pre solo
e|---------------------------------------------------------------------------|
B|--------2-22-3-------------------------------------------------------------|
G|55-55-5-2-22-2-5-55-5------------------------------------------------------|
D|55-55-5-2-22-2-5-55-5---3--------------------------------------------------|
A|33-33-3-0-00-0-3-33-3---3--------------------------------------------------|
E|----------------------0-1--------------------------------------------------|

Solo
e|---------------------------------------------------------------------------|
B|15b-15-13-15b-15-13-13---10-12-8--10---------------10-8-10-12-10-12-13-----|
G|-----------------------12-----9------7b-7-5-7b-7-5-------------------------|
D|---------------------------------------------------------------------------|
A|---------------------------------------------------------------------------|
E|---------------------------------------------------------------------------|



************************************

| ~   vibrato
| b   Bend

************************************
            
Submit corrections

comments powered by Disqus
↑ Back to top | Fastway Tabs for Dont Stop The Fight. Lyrics for acoustic guitar and electric guitar. Tablatures and chords are parodies/interpretations of the original songs. You may use it for private study, scholarship, research or language learning purposes only