» » »

Faster Pussycat, Where There's A Whip, There's A Way Bass tabs (ver.1)

Artists:  A B C D E F G H I J K L M N O P Q R S T U V W X Y Z # 

Where There's A Whip, There's A Way Bass tabs (ver.1)

Faster Pussycat Tabs
Rating:
0/5 (0 votes)
Where There's A Whip, There's A Way lessons Tabs too difficult? Try these video lessons and learn fast
                -------------------------------------------------------------------------------
Where There's a Whip There's a Way - Faster Pussycat
-------------------------------------------------------------------------------





E# tuning
in beginning hold open E


Second Intro Part x4
G|-------------------------------------------------------------------------------|
D|-------------------------------------------------------------------------------|
A|--------------------------------------7--------------------------------------7-|
E|---0-0--5-5--3-0----0--5-5--3-0------0-0--5-5--3-0----0--5-5--3-0--------------|



Verse   x4
G|-------------------------------------------------------------------------|
D|-------------------------------------------------------------------------|
A|--------------------------------------------------------------------7----|
E|-----0000000000000000----------------0-0--5-5--3-0---0--5-5--3-0---------|


Pre-Chorus
G|--------------------------------------------------------------------------------|
D|--------------------------------------------------------------------------------|
A|---0-0---0-0------------------------------------7---0-0---0-0---0-1-0-----2-----|
E|----------------0-0--5-5--3-0---0--5-5--3-0------------------3---------3--------|

Chorus   x4
G|---------------------------------------------------------------------------|
D|-------4--2-----------------4--2-------------------------------------------|
A|-------------4-3-0-2--------------4-3-0-2--------0000000-2222222-----------|
E|---2---------------------2-------------------------------------------------|


Verse   x4

Pre-Chorus

Chorus x4

Pre-Solo-Same as Intro, open E string for 7 bars.

Solo
G|------------------------------------------------------------------------------|
D|------------------------------------------------------------------------------|
A|--------------------------------------------------------222-0-2-0000-2-0------|
E|---2-222222-2-222222--2-222222-2-222222------------------------0-2-222222-----|

G|--------------------------------------------------------------------------------------|
D|-----------------------------000-----0-1-2--------------------------------------------|
A|-----------------222-0-2---------2----------------------------------------------------|
E|---2-222222---------------------------------------------------------------------------|

Verse x4

Pre-Chorus
G|-----------------------------------------------------------------------------------|
D|-----------------------------------------------------------------------------------|
A|---0-0---0-0-----0-1-0-------------------------------------------7-----------------|
E|----------------3----------3---0-0--5-5--3-0----0--5-5--3-3-0----------------------|

G|------------------------------------------------------------------------------------|
D|------------------------------------------------------------------------------------|
A|----0-0---0-0---0-1-0-----2-2222222222222-------------------------------------------|
E|----------------3---------3---------------------------------------------------------|

Chorus x4

Open E string, until fade
            

comments powered by Disqus
↑ Back to top | Faster Pussycat Bass for Where There's A Whip, There's A Way. Lyrics for acoustic guitar and electric guitar. Tablatures and chords are parodies/interpretations of the original songs. You may use it for private study, scholarship, research or language learning purposes only