» » »

Faster Pussycat, These Boots Are Made For Walkin Tabs (ver.1)

Artists:  A B C D E F G H I J K L M N O P Q R S T U V W X Y Z # 

These Boots Are Made For Walkin Tabs (ver.1)

Faster Pussycat Tabs
 Rating:
4/5 (4 votes)
These Boots Are Made For Walkin lessons Tabs too difficult? Try these video lessons and learn fast
1
                (Live)
------------------------------------------------------------------------

   THESE BOOTS ARE MADE FOR WALKIN' - Faster Pussycat
-------------------------------------------------------------------------------

Tuning: e B G D A E

Live in 2002.  To hear my source, paste this into your search bar:

main riff/verse x4 but replace each fill with the next one each time.
                   |guitar 1 fill 1:               |
e|-----------------|-----------------------------------|
B|-----5-------5---|----14-(toggle switch on-----------|
G|-----4-4-----4-4-|----14-less paul for effect)14/12--|
D|-----------------|-----------------------------------|
A|-2-2-----2-2-----|-2-2-------------------------------|
E|-0-0-----0-0-----|-0-0-------------------------------|
-|                                                 |
e|-------------------------------------------------|
B|-------------------------------------------------|
G|-------------------------------------------------|
D|-2-2-2-2-2-2-2-2-2-2-2-2-2-2-2-2-2-2-2-2-2-2-2-2-|
A|-2-2-2-2-2-2-2-2-2-2-2-2-2-2-2-2-2-2-2-2-2-2-2-2-|
E|-0-0-0-0-0-0-0-0-0-0-0-0-0-0-0-0-0-0-0-0-0-0-0-0-|

 |guitar 1 fill 2:|fill 3:                   |fill 4:             |
e|----------------|---------10-10-10-10---x--|--------------------|
B|----------------|-----5---10----10----8-10-|--------------------|
G|----5--7-7------|-----4-4------------------|-----------------2^-|
D|-7h9--8-7-5-2---|--------------------------|-------------0-2----|
A|--------------/-|-2-2----------------------|-2-----0-1-2--------|
E|----------------|-0-0----------------------|-0-0-3--------------|

verse part 2:
e|------------------------------------|
B|------------------------------------|
G|------------------------------------|
D|------------------------------------|
A|-7-7-7-7-7-7-7-7-7-7----------------|
E|-5-5-5-5-5-5-5-5-5-5-5\3--3/8--3/5--|
-|                                    |
e|------------------------------------|
B|------------------------------------|
G|------------------------------------|
D|-7-7-7-7-7-7-7-7-7-7-7-7-7-7-7-7-7--|
A|-7-7-7-7-7-7-7-7-7-7-7-7-7-7-7-7-7--|
E|-5-5-5-5-5-5-5-5-5-5-5-5-5-5-5-5-5--|

repeat main riff/verse x1, but with this fill:
 |fill 5:
e|-------------------------|
B|---12-14-14^-12-14-12----|
G|---12-14-14^-12-14-12----|
D|----------------------14-|
A|-2-----------------------|
E|-0-----------------------|

chorus:
 | x3              | x1
e|-----------------|-----------|
B|-----------------|-----------|
G|-----------------|-----------|
D|-----------------|-----------|
A|-----------------|-----------|
E|-3~~~3h5~0-------|-3~~~3h5~0-|
-|                 |           |
e|-----------------|-----------|
B|-----------------|-----------|
G|-----------------|-----------|
D|-----------------|-----------|
A|-5-5-5-7-2-2-2-2-|-5-5-5-7-2-|
E|-3-3-3-5-0-0-0-0-|-3-3-3-5-0-|
Note, guitar 1 does NOT always hammer on 3 to 5.  Just sometimes.

main riff x2
But with these fills:
 |fill 6                       |fill 7
e|-----------------------------|-----------------------------|
B|-----14^-14^14^-12-14-12-----|---14-14^(15)p12-14-14-12----|
G|-----14^-14^14^-12-14-12-----|---14-14^(15)p12-14-14-12----|
D|-------------------------12\-|--------------------------12-|
A|-2-2-------------------------|-2---------------------------|
E|-0-0-------------------------|-0---------------------------|

verse part 2 the second time:
e|------------------------------------|
B|------------------------------------|
G|------------------------------------|
D|---------------------5^~~~~~--------|
A|-7-7-7-7-7-7-7-7-7-7----------------|
E|-5-5-5-5-5-5-5-5-5-5----------------|
-|                                    |
e|------------------------------------|
B|------------------------------------|
G|------------------------------------|
D|-7-7-7-7-7-7-7-7-7-7-7-7-7-7-7-7-7--|
A|-7-7-7-7-7-7-7-7-7-7-7-7-7-7-7-7-7--|
E|-5-5-5-5-5-5-5-5-5-5-5-5-5-5-5-5-5--|

repeat main riff x1, except with this fill:
 |fill 8
e|------------------|
B|------------------|
G|------------------|
D|------------------|
A|------0-1-2-1-0---|
E|0-0-3-----------3-|

repeat the entire chorus.

Solo:
e|-----------------------------------------|
B|-15^(17)-15^(17)-17^(18)-181818181818----|(unintelligable hammer-ons and pull
G|--------------------------------------(--|
D|-----------------------------------------|
A|-----------------------------------------|
E|-----------------------------------------|

e|------------------------------------------|
B|-offs between: 15-12-------)-15p12h15p12--|..(keep repeating that pattern
G|---------------------14-12-)--------------|
D|------------------------------------------|
A|------------------------------------------|
E|------------------------------------------|

e|--------------------------------------------------------------|
B|-while slowly moving up the string)---------------------------|
G|--------------------------------------------------------------|
D|--------------------------------------12--12------------------|
A|------------------------------------14--14---14-12-14---------|
E|------------------------------------------------------5-3-0-5-|

guitar 2 x4 (under solo)
e|-------------------|
B|-------------------|
G|-------------------|
D|-2-2-2-2-2-2-2-2-5-|
A|-2-2-2-2-2-2-2-2-5-|
E|-0-0-0-0-0-0-0-0-3-|

Play main riff/verse again x, except with these fills:
 |fill 9
e|---------------------------------------------------------|
B|---12^(unitelligable hammer-ons and pull offs again)-14^-|
G|------(^^^^^same notes as in the solo.)--------------14^-|
D|---------------------------------------------------------|
A|-2-------------------------------------------------------|
E|-0-------------------------------------------------------|

 |fill 10
e|--------------------10---7~-|
B|-----------------10------7~-|
G|-------9-----8-7-------7----|
D|-----9-----8----------------|
A|-2-7-----7------------------|
E|-0--------------------------|

verse part 2 the third time:
e|------------------------------------|
B|------------------------------------|
G|------------------------------------|
D|------------------------------------|
A|-7-7-7-7-7-7-7-7-7-7----------------|
E|-5-5-5-5-5-5-5-5-5-5-3-5-3-5~-5-5~~-|
-|                                    |
e|------------------------------------|
B|------------------------------------|
G|------------------------------------|
D|-7-7-7-7-7-7-7-7-7-7-7-7-7-7-7-7-7--|
A|-7-7-7-7-7-7-7-7-7-7-7-7-7-7-7-7-7--|
E|-5-5-5-5-5-5-5-5-5-5-5-5-5-5-5-5-5--|

Repeat verse x1, with fill 8 again.

Repeat full chorus x1

End/Sweet Leaf (Black Sabbath cover):
The end has a short Black Sabbath cover, it's of Sweet Leaf.  I thought it'd be 
kind of cool to include.
Guitar 1-I don't know the solo over this.  Improvise.
 |x8                 |
e|-------------------|
B|-------------------|
G|-------------------|
D|-2-2-xx-7-6-5-5-/7-|
A|-2-2-xx-7-6-5-5-/7-|
E|-0-0-xx-5-4-3-3-/5-|


| /  slide up
| \  slide down
| h  hammer-on
| p  pull-off
| ~  vibrato
| +  harmonic
| x  Mute note
===============================================================================
            
Submit corrections

comments powered by Disqus
↑ Back to top | Faster Pussycat Tabs for These Boots Are Made For Walkin. Lyrics for acoustic guitar and electric guitar. 1 Tablatures and chords are parodies/interpretations of the original songs. You may use it for private study, scholarship, research or language learning purposes only