» » »

Faster Pussycat, Smash Alley Bass tabs (ver.1)

Artists:  A B C D E F G H I J K L M N O P Q R S T U V W X Y Z # 

Smash Alley Bass tabs (ver.1)

Faster Pussycat Tabs
 Rating:
4/5 (4 votes)
Smash Alley lessons Tabs too difficult? Try these video lessons and learn fast
                -------------------------------------------------------------------------------
                                            Smash Alley - Faster Pussycat
-------------------------------------------------------------------------------



Tuning: Standard

Intro          Repeat x6
G|----------------------|----------------------|----------------------|
D|o--------------------o|o--------------------o|o--------------------o|
A|o--------------------o|o--0-0-3-0-6-6-4-3---o|o--------------------o|
E|---0-0-3-0-6-6-4-3----|----------------------|---0-0-3-0-6-6-4-3----|

G|----------------------------------------------------|
D|----------------------------------------------------|
A|---3---3-3-3-2---2-2-----------------------5---5----|
E|---------------------3-2-0-0-3-0-6-6-4-3------------|

Verse 1        Repeat x4
G|----------------------|----------------------|----------------------|
D|o--------------------o|o--------------------o|o--------------------o|
A|o--------------------o|o--0-0-3-0-6-6-4-3---o|o--------------------o|
E|---0-0-3-0-6-6-4-3----|----------------------|---0-0-3-0-6-6-4-3----|

Chorus
G|----------------------------------------------------|
D|----------------------------------------------------|
A|---3---3-3-3-2---2-2-----------------------5---5----|
E|---------------------3-2-0-0-3-0-6-6-4-3------------|

Verse 2        Repeat x4
G|----------------------|----------------------|----------------------|
D|o--------------------o|o--------------------o|o--------------------o|
A|o--------------------o|o--0-0-3-0-6-6-4-3---o|o--------------------o|
E|---0-0-3-0-6-6-4-3----|----------------------|---0-0-3-0-6-6-4-3----|

Chorus
G|----------------------------------------------------|
D|----------------------------------------------------|
A|---3---3-3-3-2---2-2-----------------------5---5----|
E|---------------------3-2-0-0-3-0-6-6-4-3------------|

                    Repeat x4
G|---------------------------|-------------------------------------|
D|o-------------------------o|-------------------------------------|
A|o-------------------------o|---5---5-5-5-5-5-5-3---3-3-3---------|
E|---0-0---3-5---5-5-6-5-3---|-----------------------------5-3-2---|

G|-----------------------------|
D|-----------------------------|
A|---------------------5---5---|
E|---0-0-3-0-6-6-4-3-----------|

Verse 3        Repeat x4
G|----------------------|----------------------|----------------------|
D|o--------------------o|o--------------------o|o--------------------o|
A|o--------------------o|o--0-0-3-0-6-6-4-3---o|o--------------------o|
E|---0-0-3-0-6-6-4-3----|----------------------|---0-0-3-0-6-6-4-3----|

Chorus
G|----------------------------------------------------|
D|----------------------------------------------------|
A|---3---3-3-3-2---2-2-----------------------5---5----|
E|---------------------3-2-0-0-3-0-6-6-4-3------------|

                    Repeat x4
G|---------------------------|-------------------------------------|
D|o-------------------------o|-------------------------------------|
A|o-------------------------o|---5---5-5-5-5-5-5-3---3-3-3---------|
E|---0-0---3-5---5-5-6-5-3---|-----------------------------5-3-2---|

G|-----------------------------|
D|-----------------------------|
A|---------------------5---5---|
E|---0-0-3-0-6-6-4-3-----------|

Guitar Solo    Repeat x4
G|----------------------|----------------------|----------------------|
D|o--------------------o|o--------------------o|o--------------------o|
A|o--------------------o|o--0-0-3-0-6-6-4-3---o|o--------------------o|
E|---0-0-3-0-6-6-4-3----|----------------------|---0-0-3-0-6-6-4-3----|

G|----------------------------------------------------|
D|----------------------------------------------------|
A|---3---3-3-3-2---2-2-----------------------5---5----|
E|---------------------3-2-0-0-3-0-6-6-4-3------------|

                    Repeat x4
G|---------------------------|
D|o-------------------------o|
A|o-------------------------o|
E|---0-0---3-5---5-5-6-5-3---|

Outro chorus        Repeat x6
G|---------------------------|-------------------------------------|
D|o-------------------------o|-------------------------------------|
A|o-------------------------o|---5---5-5-5-5-5-5-3---3-3-3---------|
E|---0-0---3-5---5-5-6-5-3---|-----------------------------5-3-2---|

G|---------------------------|
D|---------------------------|
A|---------------------7\----|
E|---0-0-3-0-6-6-4-3---------|



| /  slide up
| \  slide down
| h  hammer-on
| p  pull-off
| ~  vibrato
| +  harmonic
| x  Mute note
===============================================================================

Please rate or comment..............
            
Submit corrections

comments powered by Disqus
↑ Back to top | Faster Pussycat Bass for Smash Alley. Lyrics for acoustic guitar and electric guitar. Tablatures and chords are parodies/interpretations of the original songs. You may use it for private study, scholarship, research or language learning purposes only