» » »

Faster Pussycat, Slip Of The Tongue Tabs (ver.1)

Artists:  A B C D E F G H I J K L M N O P Q R S T U V W X Y Z # 

Slip Of The Tongue Tabs (ver.1)

Faster Pussycat Tabs
 Rating:
4.6/5 (9 votes)
Slip Of The Tongue lessons Tabs too difficult? Try these video lessons and learn fast
1
                NOTE: I havent exactly tabbed this the way that faster pussycat plays it 
it is a modified version that sounds pretty good when played along with the actual song. 
therefore this tab is not 100% correct and i already know that. but it still sounds good.


Drop D tuning
DADGBe


   Riff 1
e|---------------------------------|
B|---------------------------------|
G|---------------------------------|
D|-2---4---2--4-2---7---7-5-5-4-4--|    
A|-2---4---2--4-2---7---7-5-5-4-4--|
D|-2---2---2--2-2---7---7-5-5-4-4--|




   Riff 2
e|-12~~-14-15-14-17-15~~-12~~-14-15-14~~-12~~------------------------------|
B|--------------------------------------------15-14~~-12~~-----------------|
G|---------------------------------------------------------14~~-12~~-11~~~-|
D|-------------------------------------------------------------------------|    
A|-------------------------------------------------------------------------|
D|-------------------------------------------------------------------------|




   Riff 3
e|-----------------------------------------------------------------------------------|
B|-----------------------------------------------------------------------------------|
G|-----------------------------------------------------------------------------------|
D|-5-----5-----2-2-----5-----5-----2-2-2-2-5-----5-----2-2-----5-----5-----10-10-8-8-|    
A|-5-----5-----2-2-----5-----5-----2-2-2-2-5-----5-----2-2-----5-----5-----10-10-8-8-|
D|-5-----5-----2-2-----5-----5-----2-2-2-2-5-----5-----2-2-----5-----5-----10-10-8-8-|
               x x                 x x x x             x x



   Riff 4
e|-----------------------------------------------------------------|
B|-----------------------------------------------------------------|
G|-----------------------------------------------------------------|
D|-7-7-9-7-7-7-9-7-7-7-9-7-7-7-9-7-2-2-4-2-2-2-4-2-2-2-4-2-2-2-4-2-|    
A|-7-7-9-7-7-7-9-7-7-7-9-7-7-7-9-7-2-2-4-2-2-2-4-2-2-2-4-2-2-2-4-2-|
D|-7-7-7-7-7-7-7-7-7-7-7-7-7-7-7-7-2-2-2-2-2-2-2-2-2-2-2-2-2-2-2-2-|

e|---------------------------------------------------------------------|
B|---------------------------------------------------------------------|
G|---------------------------------------------------------------------|
D|-9-9-11-9-9-9-11-9-9-9-11-9-9-9-11-9-7-7-9-7-7-7-9-7-2-2-4-4-5-5-6-6-|    
A|-9-9-11-9-9-9-11-9-9-9-11-9-9-9-11-9-7-7-9-7-7-7-9-7-2-2-4-4-5-5-6-6-|
D|-9-9--9-9-9-9--9-9-9-9--9-9-9-9--9-9-7-7-7-7-7-7-7-7-2-2-4-4-5-5-6-6-|

and thats all ive got so far. i'll update when i get the solo down, its just a matter of time
            
Submit corrections

comments powered by Disqus
↑ Back to top | Faster Pussycat Tabs for Slip Of The Tongue. Lyrics for acoustic guitar and electric guitar. 1 Tablatures and chords are parodies/interpretations of the original songs. You may use it for private study, scholarship, research or language learning purposes only