» » »

Faster Pussycat, House Of Pain Bass tabs (ver.1)

Artists:  A B C D E F G H I J K L M N O P Q R S T U V W X Y Z # 

House Of Pain Bass tabs (ver.1)

Faster Pussycat Tabs
 Rating:
4.2/5 (5 votes)
House Of Pain lessons Tabs too difficult? Try these video lessons and learn fast
1
                -------------------------------------------------------------------------------
-------------------------------------------------------------------------------



INTRO:(Begins right after Harmonica stretches to a pause)
G--------------------------------------------------------|
D--------------------------------------------------------|
A-3---0-3-3-0-1-3----------------------3-----------------|
E-----------------1--0-1-1--x-1h3/5---5-5-3---3-5-3-1----|


G--------------------------------------------------------|
D--------------------------------------------------------|
A--------------3--0-3-3--5-3-5----------------------3----|
E-0-1-1---1-3-5----------------1--0-1-1--x-1h3/5---5-5-3-|


G-------------------------------------------|
D-------------------------------------------|
A-------------------------3-----------------|
E-3-5-3-1--0-1-1--0h3/5--5-5-3--3-5-3-1--1x-|


 MAIN:
G-------------------------------------------------|
D-------------------------------------------------|
A-3--0-3-3--3-2--0-2-2--2-------------------------|
E-------------------------5--0-5-5--5-1--0-1-1--1-|


G-------------------------------------------------|
D-------------------------------------------------|
A-3--0-3-3--3-2--0-2-2--2-------------------------|
E-------------------------5--0-5-5--5-1--0-1-1----|


 BRIDGE:
G-------------------------------------------------------|
D-------------------------------------------------------|
A-----3-3--3-0-3----------------------------------------|
E--5-5-5---------1--0-11---5--5-5-3--3-5-3-1--11-3-33-5-|


 CHORUS:
G------------------------------------------------------------|
D------------------------------------------------------------|
A-3---0-3-3-0-1-3----------------------3---------------------|
E-----------------1--0-1-1--x-1h3/5---5-5-3---3-5-3-1--0-1-1-|


G-----------------------------------------------------------|
D-----------------------------------------------------------|
A------3---0-3-3-0-1-3----------------------3---------------|
E-1-3-5----------------1--0-1-1--x-1h3/5---5-5-3---3-5-3-1--|


G--------------------------------------|
D--------------------------------------|
A-------------------3------------------|
E-0-1-1--x-1h3/5---5-5-3---3-5-3-1--1x-|


 Play Main:

 Play Bridge:

 Play Chorus:

 SOLO:
G-------------------------------------------------|
D-------------------------------------------------|
A-----------------------3-3--3-0-2----------------|
E-1-1-11--1-1-11-------5-5---------1---0-1-1------|


G-------------------------------------------------|
D-------------------------------------------------|
A-----3-----------------------------3-------------|
E-5--5-5-3--3-5-3-1--0-1-1--1h3/5--5-5-3--3-5-3-1-|


G--------------------------------------------|
D--------------------------------------------|
A----------------3---------------------------|
E-0-1-1--1h3/5--5-5-3--3-5-3-1--0-11-3--33-5-|
            
Submit corrections

comments powered by Disqus
↑ Back to top | Faster Pussycat Bass for House Of Pain. Lyrics for acoustic guitar and electric guitar. 1 Tablatures and chords are parodies/interpretations of the original songs. You may use it for private study, scholarship, research or language learning purposes only