» » »

Hey Baby Bass tabs (ver.1)

Artists:  A B C D E F G H I J K L M N O P Q R S T U V W X Y Z # 

Hey Baby Bass tabs (ver.1)

Faster Pussycat
Rating:
0/5 (0 votes)

Hard to play? Try these video lessons and learn fast.
                
This is a good song. I'm not tabbing the original, this is actually the version 
what I've heard. 

Key:
x = times a number
* = let it ring

Intro
G:-----------------------------------|------------------------------------|
D:------------------------------5-6-7|-------------------------------5-6-7|
A:5-6-7---5-6-7---5-6-7---5-6-7------|5-6-7---5-6-7---5-6-7---5-6-7-------|
E:------0-------0-------0------------|------0-------0-------0-------------|

G:-----------------------------------|---------------------------|
D:------------------------------5-6-7|---------------------------|
A:5-6-7---5-6-7---5-6-7---5-6-7------|5-6-7---5-6-7---5-6-7------|
E:------0-------0-------0------------|------0-------0-------0-0-0|

After Intro/After Chorus/After Solo
G:---------------------------|---------------------------|
D:-------2-------------------|-------2-------------------|
A:----------0-5-0-4-2-------2|----------0-5-0-4-2-------2|
E:0--2-4--------------0-2-4--|0--2-4--------------0-2-4--|

G:---------------------------|---------------------------|
D:-------2-------------------|-------2-------------------|
A:----------0-5-0-4-2-------2|----------0-5-0-4-2-------2|
E:0--2-4--------------0-2-4--|0--2-4--------------0-2-4--|

Verse
G:---------------------------|---------------------------|
D:-------2-------------------|-------2-------------------|
A:----------0-5-0-4-2-------2|----------0-5-0-4-2-------2|
E:0--2-4--------------0-2-4--|0--2-4--------------0-2-4--|

G:---------------------------|---------------------------|
D:-------2-------------------|-------2-------------------|
A:----------0-5-0-4-2-------2|----------0-5-0-4-2-------2|
E:0--2-4--------------0-2-4--|0--2-4--------------0-2-4--|

G:-------2-------------------|-------2-------------------|
D:----------0-5-0-4-2-------2|---------0-5-0-4-2--------2|
A:0--2-4--------------0-2-4--|0--2-4--------------0-2-4--|
E:---------------------------|---------------------------|

G:---------------------------|---------------------------|
D:-------2-------------------|-------2-------------------|
A:----------0-5-0-4-2-------2|----------0-5-0-4-2-------2|
E:0--2-4--------------0-2-4--|0--2-4--------------0-2-4--|

Chorus
G:-----------------|
D:-----------------|
A:----------4-5-6-7|
E:2-4-5-6-7-------0|

After Chorus

Verse

Chorus

After Chorus

Solo
G:-----------------------------|-----------------------------|----------------------|
D:-----------------------------|-----------------------------|----------------------|
A:---------777-5-7------777-5-7|---------777-5-7------777-5-7|------------5-5-5--5-7|
E:5x24-0-0----------0-0--------|5x24-0-0----------0-0--------|5x24-7-7-7------------|

G:---------|-------------|------------------------|
D:---------|-------------|------------------------|
A:--5---5-7|--5---5-7--77|--5---5-7--7-5--------77|
E:7---7----|7---7--------|7---7----------7-5-3----|

G:---------|-------------|-------------------|
D:---------|-------------|-------------------|
A:--5---5-7|--5---5-7--77|--5---5-7--7-8-9-10|
E:7---7----|7---7--------|7---7--------------|

G:-----------------------------|----------------------|
D:-----------------------------|----------------------|
A:---------777-5-7------777-5-7|------------5-5-5--5-7|
E:5x24-0-0----------0-0--------|5x24-7-7-7------------|

After Solo

Verse

Chorus

End
G:---------------------|---------------------|---------------------|
D:----2----------------|----2----------------|----2----------------|
A:------0-5-0-4-2---5-7|------0-5-0-4-2---5-7|------0-5-0-4-2---5-7|
E:2-4-------------0---0|2-4-------------0---0|2-4-------------0---0|

G:---|---|---|---|--------|
D:---|---|---|---|--------|
A:5-7|5-7|5-7|5-7|----5-7*|
E:---|---|---|---|--------|

That's it. Totally rocks, may look alittle confusing, but it's not. I already 
            
Hard to play? Try these video lessons and learn fast. | Correct




comments powered by Disqus
↑ Back to top | Tablatures and chords are parodies/interpretations of the original songs. You may use it for private study, scholarship, research or language learning purposes only