» » »

Faster Pussycat, Don't Change That Song Bass tabs (ver.1)

Artists:  A B C D E F G H I J K L M N O P Q R S T U V W X Y Z # 

Don't Change That Song Bass tabs (ver.1)

Faster Pussycat Tabs
Rating:
0/5 (0 votes)
Don't Change That Song lessons Tabs too difficult? Try these video lessons and learn fast
                -------------------------------------------------------------------------------
                        Don't Change That Song - Faster Pussycat
-------------------------------------------------------------------------------



Tuning: Standard

Intro
G|---------------------------------------------9-9-9-9-9-7-6--------|
D|---5h7-------------5h7-------------5h7---------------------9-7\---|
A|------------------------------------------------------------------|
E|------------------------------------------------------------------|

                              Repeat x4
G|-------------------------------------|
D|o---------------------------2-5-2---o|
A|o-------------------3h5---3---------o|
E|----3h5---5-5---5-5------------------|

Verse 1                                                         Repeat x4 
G|-----------------------------------------------------------------------|
D|o-------------------------------------------------------------2-5-2---o|
A|o----------------------------------------------------3h5----3---------o|
E|---3h5-5-5-5-5-5-5-5-5-5-5-5-5-5-5-5-3h5-5-5-5-5-5-5-------------------|

G|-------------------------------------------------------5-----7---|
D|-----------------------------------------------------5-----7-----|
A|---------------------------------------------------3-----5-------|
E|---3---0-0-0-0-0-0-3---0-0-0-0-0-0-3---0-0-0-0-0-0---------------|

G|--------------------------------------------------------------------|
D|--------------------------------------------------------------------|
A|--------------------------------------------------------------------|
E|---3---0-0-0-0-0-0-3---0-0-0-0-0-0-3---0-0-0-3---0---3---0---3/15---|

Chorus
G|-------------------------------------|
D|o---------------------------2-5-2---o|
A|o-------------------3h5---3---------o|
E|----3h5-5-5-5-5-5-5------------------|

Verse 2                                                         Repeat x4 
G|-----------------------------------------------------------------------|
D|o-------------------------------------------------------------2-5-2---o|
A|o----------------------------------------------------3h5----3---------o|
E|---3h5-5-5-5-5-5-5-5-5-5-5-5-5-5-5-5-3h5-5-5-5-5-5-5-------------------|

G|-------------------------------------------------------5-----7---|
D|-----------------------------------------------------5-----7-----|
A|---------------------------------------------------3-----5-------|
E|---3---0-0-0-0-0-0-3---0-0-0-0-0-0-3---0-0-0-0-0-0---------------|

G|--------------------------------------------------------------------|
D|--------------------------------------------------------------------|
A|--------------------------------------------------------------------|
E|---3---0-0-0-0-0-0-3---0-0-0-0-0-0-3---0-0-0-3---0---3---0---3/15---|

Chorus
G|-------------------------------------|
D|o---------------------------2-5-2---o|
A|o-------------------3h5---3---------o|
E|----3h5-5-5-5-5-5-5------------------|

G|-----------------------5-7/12-12-12-12-12-10-----------|
D|-------------5h7-----7-----------------------12-10-----|
A|-------3h5/7-----5-------------------------------12\---|
E|---3h5-------------------------------------------------|

G|-----------------------5-7/12-12-12-12-12-12-12-12-12-12-12-12-12-12-12---|
D|-------------5h7-----7----------------------------------------------------|
A|-------3h5/7-----5--------------------------------------------------------|
E|---3h5--------------------------------------------------------------------|

Guitar Solo                   Repeat x4                         Repeat x3
G|-------------------------------------|---------------------------------|
D|o---------------------------2-5-2---o|o---------------5-4-2-5-4-2-----o|
A|o-------------------3h5---3---------o|o-------------------------------o|
E|----3h5-5-5-5-5-5-5------------------|----0---0-0-0-0-------------0----|

Outro                                          Repeat until end
G|-----------------------|-------------------------------------|
D|-----------------------|o---------------------------2-5-2---o|
A|---7-7-7-7-7-7-7-7-7---|o-------------------3h5---3---------o|
E|-----------------------|----3h5-5-5-5-5-5-5------------------|



| /  slide up
| \  slide down
| h  hammer-on
| p  pull-off
| ~  vibrato
| +  harmonic
| x  Mute note
===============================================================================

Please rate or comment...........
            

comments powered by Disqus
↑ Back to top | Faster Pussycat Bass for Don't Change That Song. Lyrics for acoustic guitar and electric guitar. Tablatures and chords are parodies/interpretations of the original songs. You may use it for private study, scholarship, research or language learning purposes only