» » »

Cat House Bass tabs (ver.1)

Artists:  A B C D E F G H I J K L M N O P Q R S T U V W X Y Z # 

Cat House Bass tabs (ver.1)

Faster Pussycat
Rating:
0/5 (0 votes)

Hard to play? Try these video lessons and learn fast.
                -------------------------------------------------------------------------------
                                            Cathouse - Faster Pussycat
-------------------------------------------------------------------------------



Tuning: Standard

Intro
G|------------------------------------------------------|
D|------------------------------------------------------|
A|---------------------------------------3--------------|
E|---12\-3---------------1------------------------------|

G|----------------------------------------------------------------------|
D|----------------------------------------------------------------------|
A|-----------------------------------3---3-3-3-3-3-3-3---3-3-3-3-3-3----|
E|---3---3-3-3-3-3-3-1---1-1-1-1-1-1------------------------------------|

G|----------------------------------------------------------------------|
D|-----------------------------------------------------3---3-1----------|
A|-----------------------------------3---3-3-3-3-3-3-3-----------3-1----|
E|---3---3-3-3-3-3-3-1---1-1-1-1-1-1------------------------------------|

Verse 1                                      Repeat x4
G|----------------------------------------------------|
D|o--------------------------------------------------o|
A|o------5-5-4-4-3-------5-5-4-4-3-----3---3-3-3-3---o|
E|---3-3-------------3-3------------------------------|

Chorus                                                          Repeat x4
G|-----------------------------------------------------------------------|
D|o-----------------------------------------2---3-3-5-------2---3-3-5---o|
A|o-------------------5---5-5-5-5-5-5-3---3-----------3---3-------------o|
E|----3---3-3-3-3-3-3----------------------------------------------------|

G|----------------------------------------------------------------------|
D|----------------------------------------------------------------------|
A|-----------------------------------3---3-3-3-3-3-3-3---3-3-3-3-3-1----|
E|---3---3-3-3-3-3-3-1---1-1-1-1-1-1------------------------------------|

G|----------------------------------------------------------------------|
D|-----------------------------------------------------3---3-1----------|
A|-----------------------------------3---3-3-3-3-3-3-3-----------3-1----|
E|---3---3-3-3-3-3-3-1---1-1-1-1-1-1------------------------------------|

Verse 2                                      Repeat x4
G|----------------------------------------------------|
D|o--------------------------------------------------o|
A|o------5-5-4-4-3-------5-5-4-4-3-----3---3-3-3-3---o|
E|---3-3-------------3-3------------------------------|

Chorus                                                          Repeat x4
G|-----------------------------------------------------------------------|
D|o-----------------------------------------2---3-3-5-------2---3-3-5---o|
A|o-------------------5---5-5-5-5-5-5-3---3-----------3---3-------------o|
E|----3---3-3-3-3-3-3----------------------------------------------------|

Guitar Solo
G|----------------------------------------------------------------------|
D|----------------------------------------------------------------------|
A|-----------------------------------3---3-3-3-3-3-3-3---3-3-3-3-3-3----|
E|---3---3-3-3-3-3-3-1---1-1-1-1-1-1------------------------------------|

G|----------------------------------------------------------------------------|
D|----------------------------------------------------------------------------|
A|-----------------------------------3---3-3-3-3-3-3/15---15-15-15-15-15-15\--|
E|---3---3-3-3-3-3-3-1---1-1-1-1-1-1------------------------------------------|

G|----------------------------------------------------------------------|
D|---------------------------------------------------3---3-1---0--------|
A|-----------------------------------3---3-3-3-3-3-3-------------3-3----|
E|---3---3-3-3-3-3-3-1---1-1-1-1-1-1------------------------------------|

G|------------------------------------------------------------------------|
D|------------------------------------------------------------------------|
A|-----------------------------------3/15------/15------/15------/15------|
E|---3---3-3-3-3-3-3-1---1-1-1-1-1-1--------------------------------------|

Bridge
G|----------------------------------------------------------------------|
D|----------------------------------------------------------------------|
A|-----------------------------------3---3-3-3-3-3-3-3---3-3-3-3-3-3----|
E|---3---3-3-3-3-3-3-1---1-1-1-1-1-1------------------------------------|

G|--------------------------------------------------------------------------|
D|--------------------------------------------------------------------------|
A|-----------------------------------3-3-3-3-3-3-3-3/15-15-15-15-15-15-15---|
E|---3---------------1------------------------------------------------------|

Chorus                                                          Repeat x4
G|-----------------------------------------------------------------------|
D|o-----------------------------------------2---3-3-5-------2---3-3-5---o|
A|o-------------------5---5-5-5-5-5-5-3---3-----------3---3-------------o|
E|----3---3-3-3-3-3-3----------------------------------------------------|

Outro                                                     Repeat until end
G|------------------------------------------------------------------------|
D|o-----------------------------------------4---5-5-7-------4---5-5-7----o|
A|o-------------------7---7-7-7-7-7-7-5---5-----------5---5--------------o|
E|---5---5-5-5-5-5-5------------------------------------------------------|



| /  slide up
| \  slide down
| h  hammer-on
| p  pull-off
| ~  vibrato
| +  harmonic
| x  Mute note
===============================================================================

Please rate or comment........
            
Hard to play? Try these video lessons and learn fast. | Correct




comments powered by Disqus
↑ Back to top | Tablatures and chords are parodies/interpretations of the original songs. You may use it for private study, scholarship, research or language learning purposes only