» » »

Fastball, Vampires Tabs (ver.1)

Artists:  A B C D E F G H I J K L M N O P Q R S T U V W X Y Z # 

Vampires Tabs (ver.1)

Fastball Tabs
Rating:
0/5 (0 votes)
Vampires lessons Tabs too difficult? Try these video lessons and learn fast
                FASTBALL
VAMPIRES
THE HARSH LIGHT OF DAY

This tab is 100% correct.

Intro

e------1-----------------------3----|
B------3-------1-------1-------1-0--|
G----2---0---0-------0-0-----0------|
D--0-------2-----2-3-----3-2--------|2X
A-----------------------------------|
E-----------------------------------|

Verse

"she will bring..."
e----------------------------3-------3-----|
B------3-------3-----------3---3---3---3---|
G----2---2---2---2-------0-------0-------0-|
D--0-------0-------0-2X--------------------|
A------------------------------------------|
E------------------------------------------|

"To light my way..."
e--------------------------8-----8---------7-----7--------|
B------3-------3-------------8-----8---8-----8-----8---8--|
G----2---2---2---2-------7-----7-----7---7-----7-----7----|
D--0-------0-------0-2X-----------------------------------|
A---------------------------------------------------------|
E---------------------------------------------------------|

"Dreams so real"
e-----------------------------------------7--------------5--|
B---------------------------------------6----6-----------5--|
G------2-------3-------4-------3------4--------4-------6----|
D----2-------3-------3-------3------6----------------7------|
A--0-----0-1-----1-2-----2-1-----------------------7--------|
E------------------------------------------------5----------|

"Until sundown..."
Intro

Verse

Chorus

Dm      C         F       C     Bb     F G
  We'll burn like falling stars tonight

Dm    C         F        C        Bb       F G
  And hide like vampires from the daylight

Intro

Bridge

e----------------------------------|
B----------------------------------|
G----------------------------------| Dm, C, F, C
D----------------------------------| repeat
A--5-0-5-0-5-0-5-0-5-0-5-0-5-0-5-0-| A, Bb, A, Bb
E----------------------------------|

"As long as you are mine..."

Bb, C, Dm, C, F, C,
Bb, C

Intro

The End
            

comments powered by Disqus
↑ Back to top | Fastball Tabs for Vampires. Lyrics for acoustic guitar and electric guitar. Tablatures and chords are parodies/interpretations of the original songs. You may use it for private study, scholarship, research or language learning purposes only