>
 >
The Way

The Way Guitar Tabs

Fastball - The Way chords, tabs, tablatures, lyrics

Guitar lessons | Add/correct | Request | Top 50 tabs Artists:  A B C D E F G H I J K L M N O P Q R S T U V W X Y Z 0-9

The Way Guitar Tabs – Fastball

CD, Sheet music, Poster

Do you like The Way? Share with your friends now
Bass TabsChordsChords v2Chords v3Drum TabsDrum Tabs v2TabsTabs v2Tabs v3Ukulele
---------------------------------------------------------------------
---------------------------------------------------------------------

Tuning: Standard

This is a pretty easy song and it sound fantastic played
with two guitars. Guitar 1 should play the picking and
guitar 2 plays the chords. If you listen to the song
it is easy to figure out which guitar plays what.

F#m 244222
Bm  x24432
C#7 x43422
F#7 242352
A   x02220
E   022100
D   xx0232


Verse: Guitar 1
   F#m		   F#m		  Bm		  Bm
e|---2-2-----------2-2-----------2-2-----------2-2-----|
B|---2---2---------2---2---------3---3---------3---3---|
G|---2-----2-------2-----2-------4-----4-------4-----4-|
D|---4-------------4-------------4-------------4-------|
A|-4-4-------(4)-4-4-------(2)-2-2-------(2)-2-2-------|
E|-----------------------------------------------------|
	C#7		C#7	      F#m	     F#m
e|-------2-2-----------2-2-----------2-2-----------2-2----|
B|-------2---2---------2---2---------2---2---------2---2--|
G|-------4-----4-------4-----4-------2-----2-------2-----2|
D|-------3-------------3-------------4-------------4------|
A|-(4)-4-4-------(4)-4-4-------(4)-4-4-------(4)-4-4------|
E|--------------------------------------------------------|
	F#7		F#7	      Bm	     Bm
e|-------2-2-----------2-2-----------2-2-----------2-2----|
B|-------5---5---------5---5---------3---3---------3---3--|
G|-------3-----3-------3-----3-------4-----4-------4-----4|
D|-------2-------------2-------------4-------------4------|
A|-(4)-4-4-------(4)-4-4-------(2)-2-2-------(2)-2-2------|
E|--------------------------------------------------------|
	F#m		C#7	      F#m
e|-------2-2-----------2-2-----------2-2-------|
B|-------2---2---------2---2---------2---2-----|
G|-------2-----2-------4-----4-------2-----2---|
D|-------4-------------3-------------4---------|
A|-(4)-4-4-------(4)-4-4-------(4)-4-4---------|
E|---------------------------------------------|


Verse 1:
F#m
They made up their minds
		  Bm
And they started packing
       C#7				 F#m
They left before the sun came up that day
       F#7			   Bm
An exit to eternal summer slacking
F#m			   C#7
But where were they going without ever
	        F#m
Knowing the way?


Verse 2:
F#m
They drank up the wine
		Bm
And they got to talking
C#7			 	      F#m
They now had more important things to say
F#7  				      Bm
When the car broke down they started walking
F#m			   C#7
Where were they going without even
	        F#m	E
Knowing the way?


Chorus:
		     A
Anyone can see the road that they walk on
         E
Is paved with gold
F#m
It's always summer
              C#7
They'll never get cold
              D
They'll never get hungry
              A	             E
They'll never get old and grey
		   A			E
You can see their shadows wandering off somewhere
         F#m
They won't make it home
	 C#7
But they really don't care
         D
They wanted the highway
              A	           E      C#7
They're happier there today


Verse 3:
F#m
Their children woke up
		    Bm
And they couldn't find them
        C#7			   F#m
They left before the sun came up that day
        F#7				   Bm
They just drove off and left it all behind'em
F#m			  C#7
But where were they going without ever

	        F#m	E
Knowing the way?

REPETE CHORUS

SOLO1 F#m   Bm   F#m   C#7   F#m

REPEAT CHORUS

SOLO2(REPEAT SOLO!)


=====================================================================





Comments


Popular Fastball tabs & chords
Human Torch Chords
Out Of My Head 2 Chords
The Way 1 Chords
You're An Ocean Chords
Emily Tabs
Fire Escape 1 Tabs
Fire Escape Intro Tabs
Out Of My Head (Acoustic) Tabs
Out Of My Head 1 Tabs
Slow Drag Tabs


Song lyrics



↑ Back to top | Tablatures and chords are parodies/interpretations of the original songs. You may use it for private study, scholarship, research or language learning purposes only
© 2014 AZChords.com Contact us | Privacy policy | DMCA | Add/correct tabs | Request tabs | Top 50 tabs