» » »

Fastball, Out Of My Head Tabs (ver.3)

Artists:  A B C D E F G H I J K L M N O P Q R S T U V W X Y Z # 

Out Of My Head Tabs (ver.3)

Fastball Tabs
 Rating:
4/5 (4 votes)
Out Of My Head lessons Tabs too difficult? Try these video lessons and learn fast
1
                (Acoustic)
-------------------------------------------------------------------------------
-------------------------------------------------------------------------------

Tuning:Standart

Intro:
e|-------------------------|-----10------------|-----------------------------|
B|-------------------------|-10b----10b--8---8-|-------------8--8/0----------|
G|---------------7---9-7-9-|---------------9---|--7-9----7-9-----------------|
D|-------7-5-7\9-----------|-------------------|------10---------------------|
A|--5\7--------------------|-------------------|-----------------------------|
E|-------------------------|-------------------|-----------------------------|

e|--------10-12----12-10-----------------------------------------------------|
B|--10\12-------12-------10\12--12-10-8--------------------------------------|
G|---------------------------------------7-7h9--7\9--9-7---------------------|
D|---------------------------------------------------------------------------|
A|---------------------------------------------------------------------------|
E|---------------------------------------------------------------------------|

Verse 1

C                           Em
Sometimes I feel, like I am drunk behind the wheel
F                           C                G
The wheel of possibilities, however it may roll
C                          Em
Give it a spin, see if you can somehow factor in,
F                   
You know there’s always more than one way
C                   G
To say exactly, what you mean to say

Reff:

C              G
Was outta my head, 
              Am
Was outta my mind,
             Em                F
How could I have ever been so blind
		                 C          F            G
I was waitin’ for an indication, it was hard to find
C                 G
No matter what I say, 
            Am
Only what I do,
             Em                   F
I never mean to do bad things to you
                  C                      F                   mute
So quiet but I finally woke up, if your sad then it’s time you spoke up too

Solo:

e|----------------------|----------------------------------------------------|
B|-------------------8--|----8-10-10b-8----8-10-10b-8-----8h10h8-------------|
G|------5-7---5-7\9-----|--9-------------9--------------9--------------------|
D|--5\7-----7-----------|----------------------------------------------------|
A|----------------------|----------------------------------------------------|
E|----------------------|----------------------------------------------------|

e|-----------------------------|----------------------|---------10--10-10-10-|
B|----------------8------------|------------8-10-8~~--|--10\12--12--12-12-12-|
G|--5\7-7-7-5-7\9---9/7-5---5--|---7\9-7--9-----------|----------------------|
D|------------------------7----|----------------------|----------------------|
A|-----------------------------|----------------------|----------------------|
E|-----------------------------|----------------------|----------------------|

e|---------------------------------------------------------------------------|
B|--10\12-12-10-8---8--------------------------------------------------------|
G|----------------9----------------------------------------------------------|
D|---------------------------------------------------------------------------|
A|---------------------------------------------------------------------------|
E|---------------------------------------------------------------------------|

please rate!

| /  slide up
| \  slide down
| h  hammer-on
| p  pull-off
| b  bend 
| ~  vibrato
| +  harmonic
| x  Mute note
===============================================================================
            
Submit corrections

comments powered by Disqus
↑ Back to top | Fastball Tabs for Out Of My Head. Lyrics for acoustic guitar and electric guitar. 1 Tablatures and chords are parodies/interpretations of the original songs. You may use it for private study, scholarship, research or language learning purposes only