» » »

Whither Bass tabs (ver.1)

Artists:  A B C D E F G H I J K L M N O P Q R S T U V W X Y Z # 

Whither Bass tabs (ver.1)

Farse
Rating:
0/5 (0 votes)

Hard to play? Try these video lessons and learn fast.
                Verse 1 
|------------------------------------|
|------------------------------------|
|------------------------5-5-5-5-5---|
|--7-7-7-5-5-5-5-5-3-3-3-------------|
                                       x4
|------------------------------------|
|------------------------------------|
|------------------------5-5-5-5-5---|
|--7-7-7-5-5-5-5-5-3-2-3-------------|

Chorus
|------------------------------------|
|------------------------------------|
|------------------------5-5-5-5-5---|
|--7-7-7-5-5-5-5-5-3-3-3-------------|
                                       x2
|------------------------------------|
|------------------------------------|
|------------------------5-5-5-5-5---|
|--7-7-7-5-5-5-5-5-3-2-3-------------|


In between bit
|-----------------------------------------------|
|-----------------------------------------------|
|------------10-10-10-10----------10-10-10-10---|
|--7-7-7-7-7------------7-7-7-7-7---------------|
                                                  x2
|----------------------------------------|
|----------------------------------------|
|------------5-5-5-5-----------5-5-5-5---|
|--3-3-3-3-3---------3-3-3-3-3-----------|

Verse 2
|------------------------------------|
|------------------------------------|
|------------------------5-5-5-5-5---|
|--7-7-7-5-5-5-5-5-3-3-3-------------|
                                       x2
|------------------------------------|
|------------------------------------|
|------------------------5-5-5-5-5---|
|--7-7-7-5-5-5-5-5-3-2-3-------------|


Chorus 2
|------------------------------------|
|------------------------------------|
|------------------------5-5-5-5-5---|
|--7-7-7-5-5-5-5-5-3-3-3-------------|
                                       x2
|------------------------------------|
|------------------------------------|
|------------------------5-5-5-5-5---|
|--7-7-7-5-5-5-5-5-3-2-3-------------|

Bridge
|-----------------------------------------------|
|-----------------------------------------------|
|------------10-10-10-10----------10-10-10-10---|
|--7-7-7-7-7------------7-7-7-7-7---------------|
                                                  
|----------------------------------------|
|----------------------------------------|
|------------5-5-5-5-----------5-5-5-5---|
|--3-3-3-3-3---------3-3-3-3-3-----------|

|-----------------------------------------------|
|-----------------------------------------------|
|------------10-10-10-10----------10-10-10-10---|
|--7-7-7-7-7------------7-7-7-7-7---------------|

|----------------------------------------|
|----------------------------------------|
|------------5-5-5-5-----------5-5-5-5---|
|--3-3-3-3-3---------3-3-3-3-3-----------|

|-----------------------------------------------|
|-----------------------------------------------|
|------------10-10-10-10----------10-10-10-10---|
|--7-7-7-7-7------------7-7-7-7-7---------------|
                                                  
|----------------------------------------|
|----------------------------------------|
|------------5-5-5-5-----------5-5-5-5---|
|--3-3-3-3-3---------3-3-3-3-3-----------|

|-----------------------------------------------|
|-----------------------------------------------|
|------------10-10-10-10----------10-10-10-10---|
|--7-7-7-7-7------------7-7-7-7-7---------------|
                                                  
|----------------------------------------|
|----------------------------------------|
|------------5-5-5-5-----------5-5-5-5---|
|--3-3-3-3-3---------3-3-3-3-3-----------|

|-----------------------------------------------|
|-----------------------------------------------|
|------------10-10-10-10----------10-10-10-10---|
|--7-7-7-7-7------------7-7-7-7-7---------------|
                                                  
|----------------------------------------|
|----------------------------------------|
|------------5-5-5-5-----------5-5-5-5---|
|--3-3-3-3-3---------3-3-3-3-3-----------|

|-----------------------------------------------|
|-----------------------------------------------|
|------------10-10-10-10----------10-10-10-10---|
|--7-7-7-7-7------------7-7-7-7-7---------------|

|-----------------------------------|
|-----------------------------------|
|------------5-5-5-5--5-4-2-5-4-2---|
|--3-3-3-3-3------------------------|

|----------------------------|
|----------------------------|
|--------5-5-5---------------|
|--3-3-3-------5-5-5-2-2-2---|

|-----------------|
|-----------------|
|--5-4-2--5-4-2---|
|-----------------|

|----------------------------|
|----------------------------|
|--------5-5-5---------------|
|--3-3-3-------5-5-5-2-2-2---|

|-----------------|
|-----------------|
|--5-4-2--5-4-2---|
|-----------------|

|----------------------------|
|----------------------------|
|--------5-5-5---------------|
|--3-3-3-------5-5-5-2-2-2---|

|-----------------|
|-----------------|
|--5-4-2--5-4-2---|
|-----------------|

|----------------------------|
|----------------------------|
|--------5-5-5---------------|
|--3-3-3-------5-5-5-2-2-2---|
and then guitar finish's

:: i speant ages writing this so rate it gd ::
            
Hard to play? Try these video lessons and learn fast. | Correct




comments powered by Disqus
↑ Back to top | Tablatures and chords are parodies/interpretations of the original songs. You may use it for private study, scholarship, research or language learning purposes only