» » »

Farse, Once Was A Rosecomplete Bass tabs (ver.1)

Artists:  A B C D E F G H I J K L M N O P Q R S T U V W X Y Z # 

Once Was A Rosecomplete Bass tabs (ver.1)

Farse Tabs
 Rating:
4/5 (4 votes)
Once Was A Rosecomplete lessons Tabs too difficult? Try these video lessons and learn fast
                Farse-once was a rose

intro
G----------------------------------------------------------
D--7-7-7----7-7-7------------------------------------------
A--------------------5-5-5-5--3-3-3-7----------------------
E--------5--------5--------------------------------------x6

main bit
G----------------------------------------------------------
D-----------------------------7-7-7-7----------------------
A-----------7-7-7-7----------------------------------------
E--5-7-5-5-----------5-7-5-5-------------------------------


G----------------------------------------------------------
D----------------------------------------------------------
A--------7--7-7-7-------------7-5-3-5-3--------------------
E--5-5-5----------7--5-7-5-5-------------------------------x3
  				not too sure about that bit!
intro
mainx2
then
G----------------------------------------------------------
D----------------------------------------------------------
A--------7--------5--------3--7-7-7-3-5--------------------
E--5-5-5----3-3-3----1-1-1---------------------------------x4


G----------------------------------------------------------
D----------------------------------------------------------
A--------------------7-7-7-3-5-----------------------------
E--5-7-5-5--5-7-5-5----------------------------------------

G----------------------------------------------------------
D----------------------------------------------------------
A--------7--------5--------3--7-7-7-3-5--------------------
E--5-5-5----3-3-3----1-1-1---------------------------------x2


G----------------------------------------------------------
D--7-7-7----7-7-7------------------------------------------
A--------------------5-5-5-5--3-3-3-7----------------------
E--------5--------5----------------------------------------

intro x4
end on
G----------------------------------------------------------
D----7------------------------------------------------------
A----------------------------------------------------------
E--7--------------------------------------------------------
            
Submit corrections

comments powered by Disqus
↑ Back to top | Farse Bass for Once Was A Rosecomplete. Lyrics for acoustic guitar and electric guitar. Tablatures and chords are parodies/interpretations of the original songs. You may use it for private study, scholarship, research or language learning purposes only