» » »

Farse, Once Was A Rose Bass tabs (ver.2)

Artists:  A B C D E F G H I J K L M N O P Q R S T U V W X Y Z # 

Once Was A Rose Bass tabs (ver.2)

Farse Tabs
 Rating:
4/5 (4 votes)
Once Was A Rose lessons Tabs too difficult? Try these video lessons and learn fast
                Farse - Once was a Rose

This song has a kick ass bass line and i've tried to get it as
close as i could.  I'm pretty sure it's all right so give it a go!!

Intro
G------------------------
D-777---777------------2-
A-------------5555--333--
E----5-----5-------------


Verse
G-------------------------------------------
D-------3333--------5555--------222---------
A--3-----------3-------------3-----2---3----
E-5-55--------5-55--------111---------5-55--

G---------
D---32----
A-----535-
E-55------


Chorus
G-------------------------
D----7-----5-----3--222---
A----------------------23-
E-555---333---111---------


After the chorus it does this once and then goes back to the verse.
G-------------------------------------------
D-------------------------------222---------
A--3-----------3-------------3-----2---3----
E-5-55--------5-55--------111---------5-55--

G---------
D---32----
A-----535-
E-55------


Outro                     On the last time add this bit
G------------------------|-----
D-777---777------------2-|-2\7-
A-------------5555--333--|3----
E----5-----5-------------|-----


Intro  x6
Verse  x3
Chorus x4
Then bit after chorus
Verse  x2
Chorus x4
Outro  x4
            
Submit corrections

comments powered by Disqus
↑ Back to top | Farse Bass for Once Was A Rose. Lyrics for acoustic guitar and electric guitar. Tablatures and chords are parodies/interpretations of the original songs. You may use it for private study, scholarship, research or language learning purposes only