» » »

Once Was A Rose Bass tabs (ver.1)

Artists:  A B C D E F G H I J K L M N O P Q R S T U V W X Y Z # 

Once Was A Rose Bass tabs (ver.1)

Farse
Rating:
0/5 (0 votes)

Hard to play? Try these video lessons and learn fast.
                farse once was a rose:)

intro

G-------------------------------|
D-333--333-----------2----------|
A------------4444-444-----------|
E----1----1---------------------|

G-------------------------------|
D-333--333-----------2----------|
A------------4444-444-----------|
E----1----1---------------------|

G-------------------------------|
D-333--333-----------2----------|
A------------4444-444-----------|
E----1----1---------------------|

G-------------------------------|
D-333--333-----------2----------|
A------------4444-444-----------|
E----1----1---------------------|
            
Hard to play? Try these video lessons and learn fast. | Correct




comments powered by Disqus
↑ Back to top | Tablatures and chords are parodies/interpretations of the original songs. You may use it for private study, scholarship, research or language learning purposes only