» » »

Eggs Is Eggs Bass tabs (ver.1)

Artists:  A B C D E F G H I J K L M N O P Q R S T U V W X Y Z # 

Eggs Is Eggs Bass tabs (ver.1)

Farse
Rating:
0/5 (0 votes)

Hard to play? Try these video lessons and learn fast.
                Farse - Eggs Is Eggs



Intro x2
G----------------------------------------|
D----------------------------------3-4-3-|
A--1--3-4-3--1---------1--3-4-3--1-------|
E--------------1-2-1---------------------|


Verse 1
G----------------------------1-----------|
D--33-33-3-43-------33-33-3-4-4-3h4p3----|
A-1-----------43--1------------------4---|
E----------------------------------------|

G-------------------------------4--------|
D--33-33-3-43-------33-33-3-4-44---------|
A-1-----------43--1----------------------|
E----------------------------------------|

G-----------1--------------------4-------|
D--33-33-3-4-4-3-----33-33-3-4-44--------|
A-1-------------4--1---------------------|
E----------------------------------------|

G-------------------------------4--------|
D--33-33-3-43-------33-33-3-4-44---------|
A-1-----------43--1----------------------|
E----------------------------------------|

Chorus 1 
G---------------------------------------------------|
D---------------------------------------------------|
A-1-1--1-2-1-0--1-1--1-2-1-0--1-1--1-2-1-0----------|
E------------------------------------------2-2-21---|

G---------------------------------------------------|
D---------------------------------------------------|
A-1-1--1-2-1-0--1-1--1-2-1-0--1-1--1-2-1-0----------|
E------------------------------------------2-1------|

Verse


Chorus 2
G---------------------------------------------------|
D---------------------------------------------------|
A-1-1--1-2-1-0--1-1--1-2-1-0--1-1--1-2-1-0----------|
E------------------------------------------2-2-21---|

G---------------------------------------------------|
D---------------------------------------------------|
A-1-1--1-2-1-0--1-1--1-2-1-0--1-1--1-2-1-0----------|
E------------------------------------------2-1------|

G---------------------------------------------------|
D-------------------3-------------------------------|
A-1-1--1-2-1-0--1-1-----------1-1--1-2-1-0----------|
E------------------------------------------2-2-21---|


G---------------------------------------------------|
D---------------------------------------------------|
A-1-1--1-2-1-0--1-1-1----------1-1--1-2-1-0------1-1|
E--------------------------------------------2-1----|


Bridge
G------------------------------------|
D-----------------3-3----------------|
A--1-1--4-4--3-3---------------------|
E------------------------------------|

G------------------------------------|
D-----------------3h4p3--------------|
A--1-1--4-4--3-3---------------------|
E------------------------------------|

G------------------------------------|
D-----------------3-3----------------|
A--1-1--4-4--3-3---------------------|
E------------------------------------|

G------------------------------------|
D------------------------------------|
A--1-1--4-4--3-----------------------|
E------------------------------------|

Chorus 3
G---------------------------------------------------|
D---------------------------------------------------|
A-1-1--1-2-1-0--1-1--1-2-1-0--1-1--1-2-1-0----------|
E------------------------------------------2-2-21---|

G---------------------------------------------------|
D---------------------------------------------------|
A-1-1--1-2-1-0--1-1--1-2-1-0--1-1--1-2-1-0----------|
E------------------------------------------2-1------|

G---------------------------------------------------|
D-------------------3-------------------------------|
A-1-1--1-2-1-0--1-1-----------1-1--1-2-1-0----------|
E------------------------------------------2-2-21---|


G---------------------------------------------------|
D---------------------------------------------------|
A-1-1--1-2-1-0--1-1-1----------1-1--1-2-1-0-------1-|
E--------------------------------------------2-1----|

Ending


G--------------|
D--------------|
A---1----------|
E-1---1--2--1--|
            
Hard to play? Try these video lessons and learn fast. | Correct




comments powered by Disqus
↑ Back to top | Tablatures and chords are parodies/interpretations of the original songs. You may use it for private study, scholarship, research or language learning purposes only