» » »

Farse, Cigarrettes Through Polystyrene Bass tabs (ver.1)

Artists:  A B C D E F G H I J K L M N O P Q R S T U V W X Y Z # 

Cigarrettes Through Polystyrene Bass tabs (ver.1)

Farse Tabs
 Rating:
4/5 (4 votes)
Cigarrettes Through Polystyrene lessons Tabs too difficult? Try these video lessons and learn fast
                Song title:Cigarrettes through Polystyrene

Key:
h = Hammer

Intro

|----------------------------|
|----------------------------|
|----------------------------|
|-1-1-1-1-4-4-4-6-6-6-8-8-8--|

|----------------------------|
|----------------------------|
|---------4-4-4--------------|
|-1-1-1-1-------6-6-6-4-4-4--|

|---------------------------------------------------------|
|---------------------------------------------------------|
|---------------------------------------------------------|
|-1-1-1-1-4-4-4-6-6-6-8-8-8-8xx8xx8-8h9-8h9-8h9-----------|

Verse

|----------------------------|
|----------------------------|
|----------------------------|
|-1-1-1-1-4-4-4-6-6-6-8-8-8--|

|----------------------------|
|----------------------------|
|---------4-4-4--------------|
|-1-1-1-1-------6-6-6-4-4-4--|

**Thats all i've worked out for now,but i'm still working on it**
            
Submit corrections

comments powered by Disqus
↑ Back to top | Farse Bass for Cigarrettes Through Polystyrene. Lyrics for acoustic guitar and electric guitar. Tablatures and chords are parodies/interpretations of the original songs. You may use it for private study, scholarship, research or language learning purposes only