>
 >
Broken Record

Broken Record Guitar Tabs

Farse - Broken Record chords, tabs, tablatures, lyrics

Guitar lessons | Add/correct | Request | Top 50 tabs Artists:  A B C D E F G H I J K L M N O P Q R S T U V W X Y Z 0-9

Broken Record Guitar Tabs – Farse

CD, Sheet music, Poster

Do you like Broken Record? Share with your friends now
Tabs
TUNING : STANDARD

INTRO BOTH GUITARS

. = PALM MUTE
< = HARMONIC
b = BEND

E--------------------------------------------------|
B--------------------------------------------------|
G--------------------------------8--88-88-8--88-87-|
D--------------5--55-55-5--55-53-8--88-88-8--88-87-|
A--------------5--55-55-5--55-53-6--66-66-6--66-65-|
E-<3><3><3><3>-3--33-33-3--33-31-------------------|

E-------------------------------------|
B-------------------6--66-66-6--66-67-|
G-5--55-55-5--55-55-5--55-55-5--55-56-|
D-5--55-55-5--55-55-3--33-33-3--33-34-|
A-3--33-33-3--33-33-------------------|
E-------------------------------------|

GUITAR 1

E-------------------------------------|
B-8--88-88-8--88-88-------------------|
G-7--77-77-7--77-77-8--88-88-8--88-88-|
D-5--55-55-5--55-55-8--88-88-8--88-88-|
A-------------------6--66-66-6--66-66-|
E-------------------------------------|

GUITAR 2

E-------------------------------------|
B-8--88-88-9b-88-86-8--88-88-9b-88-86-|
G-7--77-77----------------------------|
D-5--55-55----------------------------|
A-------------------------------------|
E-------------------------------------|

GUITAR 1

E-------------------------------------|
B-------------------6--66-66-6--66-67-|
G-5--55-55-5--55-55-5--55-55-5--55-56-|
D-5--55-55-5--55-55-3--33-33-3--33-34-|
A-3--33-33-3--33-33-------------------|
E-------------------------------------|

GUITAR 2

E-------------------------------------|
B-8--88-88-8--88-88-6--66-66-6--66-67-|
G-------------------------------------|
D-------------------------------------|
A-------------------------------------|
E-------------------------------------|

VERSE

GUITAR 1 (THE SLIP, CRACKLE, VINYL, MIRRORS ME, AND THIS BROKEN RECORD PLAYS.)

E------------|          |-X-X-X-X-|
B-8--88-8----|          |-X-X-X-X-|
G-7--77-7----|          |-X-X-X-X-|
D-5--55-5----| X7 THEN  |-X-X-X-X-|
A------------|          |-X-X-X-X-|
E------------|          |-X-X-X-X-|

GUITAR 2

E------------|
B-8b--6-8----|
G------------|
D------------|
A------------|
E------------|

GUITAR 1
*
E-----------------------------------------------------------------|
B-8-8-8-8-8-8-8-8-8-8-8-8-8-8-8-8-6-6-6-6-6-6-6-6-6-6-6-6-6-6-6-6-|
G-7-7-7-7-7-7-7-7-7-7-7-7-7-7-7-7-5-5-5-5-5-5-5-5-5-5-5-5-5-5-5-5-|
D-5-5-5-5-5-5-5-5-5-5-5-5-5-5-5-5-3-3-3-3-3-3-3-3-3-3-3-3-3-3-3-3-|
A-----------------------------------------------------------------|
E-----------------------------------------------------------------|

GUITAR 2

E-----------------------------------------------------------------|
B-8-8-8-8-8-8-8-8-10------11------6-6-6-6-6-6-6-6-10------11------|
G-----------------------------------------------------------------|
D-----------------------------------------------------------------|
A-----------------------------------------------------------------|
E-----------------------------------------------------------------|

GUITAR 1&2

E----------------------------------------|
B-----------------------------------66-7-|
G-8--88-88--8--88-88--8--88-88--88--55-6-|
D-8--88-88--8--88-88--8--88-88--88--33-4-|
A-6--66-66--6--66-66--6--66-66--66-------|
E----------------------------------------|

THEN REPEAT FROM WHERE THE * IS, THEN PLAY THE VERSE THROUGH TWICE.
I'N NOT QUITE SURE WHAT IS PLAYED AT THIS POINT, BUT I THINK IT GOES
SOMETHING LIKE THIS.

GUITAR 1 (CLEAN)

E------------------------------------------|
B------6---------6-------------------------|
G--7575-7575-7575-7575---------------8-----|
D-5---------5----------8686-8686-8686-8686-| X4
A---------------------6----6----6----------|
E------------------------------------------|

GUITAR 2 (CLEAN)

E-3---------5----6----6----6---------------|
B-3---------5----6----8--------------------|
G-3---------5----6----8------8-------------|
D-5---------7----8----8--------8-----------| X4
A-5---------7----8----6--------------------|
E-3---------5----6-------------------------|

AFTER 4TH TIME GUITAR 2 PLAYS THIS
                      DISTORTED      GUITAR 1 JOINS IN
E-----------------------------------------------------|
B-3---------5----6----------------7-------------------|
G-3---------5----6----8-88-8-88-8-5-----------8-------|
D-5---------7----8----8-88-8-88-8-3--5-5555---8---3---|
A-5---------7----8----6-66-6-66-6----5-5555---6---3---|
E-3---------5----6-------------------3-3333-------1---|
                        ..   ..        ....

BOTH GUITARS

E---------------------------------|
B---------------------------------|
G-----------------888-888-888-888-| 
D-555-5553-333-33-888-888-888-888-| X2
A-555-5553-333-33-666-666-666-666-|
E-333-3331-111-11-----------------|
  ..  ..   ..  .. ..  ..  ..  ..  

GUITAR 1

E----------------------------------|
B----------------------------------|
G-----------------888-8885-555-555-|
D-555-5553--------888-8885-555-555-|
A-555-5553--------666-6663-333-333-| X2
E-333-3331-------------------------|
  ..  ..          ..  ..   ..  ..  

GUITAR 2 (THIS BIT IS IN HARMONICS, I THINK, BUT I HAVE JUST PUT IT
IN AS NORMAL)

E-----12--------------------------|
B------12--------------------43-3-|
G--------9---------------------5--|
D---------------------------------|
A---------------------------------| X2
E---------------------------------|

ENDING

GUITAR 1

E----------|
B----------|
G----------|
D-555-5553-|
A-555-5553-|
E-333-3331-|  
  ..  .. 

GUITAR 2

E-----12---|
B------12--|
G--------9-|
D----------|
A----------|
E----------|





Comments


Popular Farse tabs & chords
Eggs Is Eggs Bass Tabs
Once Was A Rose 2 Bass Tabs
Once Was A Rosecomplete Bass Tabs
Superficial Guy Bass Tabs
Whither Bass Tabs
Cigarette Through Polystyrene Tabs
Cigarettes Through Polystyrene Tabs
Firing Line Tabs
Firing Line 1 Tabs
When The Laughter Stops 1 Tabs


Song lyrics



↑ Back to top | Tablatures and chords are parodies/interpretations of the original songs. You may use it for private study, scholarship, research or language learning purposes only
© 2014 AZChords.com Contact us | Privacy policy | DMCA | Add/correct tabs | Request tabs | Top 50 tabs