» » »

Farse, Another Cliche Tabs (ver.1)

Artists:  A B C D E F G H I J K L M N O P Q R S T U V W X Y Z # 

Another Cliche Tabs (ver.1)

Farse Tabs
Rating:
0/5 (0 votes)
Another Cliche lessons Tabs too difficult? Try these video lessons and learn fast
                *  = Play 3 Times
** = Play 6 Times
*** etc etc

^   = Play 4 Times
^^ = Play 8 Times
^^^ = etc

I worked this whole song out by ear, but it sounds
all correct, that is the right order, listen to the song
for the timing and the number of repeats etc etc
Thanks a lot,
                     Ally

-|----------------|-------------------|-------------------------|-------------
-|----------------|-------------------|-------------------------|-------------
-|----------------|-------------12-12-|-9-----------------------|-------------
-|-2--------------|-------------12-12-|-9----9---10---5----5----|-------------
-|-2--------------|-------------10-10-|-7-**-9---10---5----5----|-------------
-|-0--------------|-------------------|------7-*-8--*-3-**-2-**-|-------------
   Hold for 3 Bars. At end of 4th Play  Intro Part 2                          

-|---------------------------------|------------------------------------------
-|---------------------------------|------------------------------------------
-|-9-------------7--------12-12--9-|------------------------------------------
-|-9----9---10---7----9---12-12--9-|------------------------------------------
-|-7-**-9---10---5-**-9---10-10--7-|------------------------------------------
-|------7-*-8--*------7-*----------|------------------------------------------
  Intro Part 2                                                                

-|-7----7----6------|---------|--------------------------------|--------------
-|-8----10---7------|---------|--------------------------------|--------------
-|-9----9----8------|---------|-------------------------12--12-|--------------
-|-9----x----8------|---------|-------------------------12--12-|--------------
-|-7-^^-7-^^-6-^^^^-|---------|-9-9-9-9-9-9-9-9-9-9-9-9-10--10-|--------------
-|------------------|---------|-7-7-7-7-7-7-7-7-7-7-7-7--------|--------------
  Verse (All ska Strokes) Repeat as many times as needed.     Back to chorus  

-|----------------------------|-----------------------------------------------
-|----------------------------|-----------------------------------------------
-|-9----------------9-7--7--8-|-----------------------------------------------
-|-9---9-10---4-5---9-7--7--8-|-----------------------------------------------
-|-7---9-10---4-5---7-5--5--6-|-----------------------------------------------
-|-----7-8----2-3-------------|-----------------------------------------------
 Middle 8 Part 1 (Guitar 1)   Repeat                                          

-|-----------------|-----------------|-----------------|-----------------|----
-|-8-8-8-8-8-8-8-8-|-8-8-8-8-8-8-8-8-|-8-8-8-8-8-8-8-8-|-7-7-7-7-7-7-7-7-|----
-|-----------------|-----------------|-----------------|-----------------|----
-|-5-5-5-5-5-5-5-5-|-5-5-5-5-5-5-5-5-|-5-5-5-5-5-5-5-5-|-4-4-4-4-4-4-4-4-|----
-|-----------------|-----------------|-----------------|-----------------|----
-|-----------------|-----------------|-----------------|-----------------|----
 Middle 8 Part 2 (Guitar 2 only plays this afte part 1 has been repeated x2)  

-|--------------------------|-----------------------|-7----7-8-7----7----|----
-|-8---8-10---------8-8-8---|-8---8-10---------8-10-|---10-------10---10-|----
-|----------7---7-9---------|----------7---7-9------|--------------------|----
-|--------------------------|-----------------------|--------------------|----
-|--------------------------|-----------------------|--------------------|----
-|--------------------------|-----------------------|--------------------|----
 Ade's Guitar solo, feel free to add harmonics, they work well                

-|---------------|----------|-------------------------------------------------
-|-8-10-8-7-8-8--|-8-10---8-|-8-----------------------------------------------
-|---------------|------7---|-9-----------------------------------------------
-|---------------|----------|-0-----------------------------------------------
-|---------------|----------|-7-----------------------------------------------
-|---------------|----------|-------------------------------------------------
                            Finish on E minor
            
Submit corrections

comments powered by Disqus
↑ Back to top | Farse Tabs for Another Cliche. Lyrics for acoustic guitar and electric guitar. Tablatures and chords are parodies/interpretations of the original songs. You may use it for private study, scholarship, research or language learning purposes only