>
 >
Xenokratie

Xenokratie Guitar Tabs

Farin Urlaub Racing Team - Xenokratie chords, tabs, tablatures, lyrics

Guitar lessons | Add/correct | Request | Top 50 tabs Artists:  A B C D E F G H I J K L M N O P Q R S T U V W X Y Z 0-9

Xenokratie Guitar Tabs – Farin Urlaub Racing Team

CD, Sheet music, Poster

Do you like Xenokratie? Share with your friends now
ChordsTabsUkulele
Xenokratie - Farin Urlaub
===========================

_______________________________________________________________________

Eb - Stimmung
~ = aushalten


1. Gitarre spielt angegebene Akkorde durchgehend 
2. Gitarre = 1)
3. Gitarre = 2)

  Am*  F  G/F  C   G   Am  D
1:-0-|-1-|-3-|---|---|---|---|
2:-1-|-1-|-0-|---|---|---|---|
3:-2-|-2-|-0-|-5-|---|---|-7-|
4:-2-|-3-|-0-|-5-|-5-|-7-|-7-|
5:-0-|-3-|-x-|-3-|-5-|-7-|-5-|
6:---|-1-|-1-|---|-3-|-5-|---|

________________________________________________________________________


Intro:

1)Am F G/F
  Am F G/F

2) 5x (beim 2. Mal setzen die anderen beiden Gitarren ein)

  1:---5--5-----|---5--5-----|---8--8-----|---7--7-----|
  2:-5--5---5-3-|-5--5---5-3-|-6--6---6---|-6--6---6---|
  3:------------|------------|----------7-|----------7-|
  4:------------|------------|------------|------------|
  5:------------|------------|------------|------------|
  6:------------|------------|------------|------------|

3)                
  1:--------------|-----------------|--------------|
  2:--------------|-----------------|--------------|
  3:--------------|-----------------|--------------|
  4:-9h10p9----7~-|-----------------|--------------|
  5:--------10----|-----------------|--------------|
  6:--------------|-6/7~-8~-5~-3-5~-|-7~-8~-5~-3-5~|


Strophe 1:

Am*
Hinter hohen Mauern, hinter Stacheldraht,
F                       G/F
Wo Schäferhunde lauern,     da residiert der Staat
Am*
Unter hohen Decken, wo schon der Kaiser saß,
F                          G/F
Sitzt ihr an langen Tischen    und guckt in Kameras




Refrain 1:

      C                 G
Ihr sagt, es wird den Armen besser gehn
          Am                 D
Aber bis jetzt ist noch kein Unterschied zu sehn
              C                     G
Doch mir ist klar, euch trifft wie immer keine Schuld
          Am           D   
Und darum übe ich mich weiter in Geduld

1) + 2)

1) Am* F F/G
   Am* F F/G

2) 4X
  1:---5--5-----|---5--5-----|---8--8-----|---7--7-----|
  2:-5--5---5-3-|-5--5---5-3-|-6--6---6---|-6--6---6---|
  3:------------|------------|----------7-|----------7-|
  4:------------|------------|------------|------------|
  5:------------|------------|------------|------------|
  6:------------|------------|------------|------------|


Strophe 2:

Am*       
Zwischen Polizisten mit kugelsicheren Westen
F                      G/F
Kommt ihr uns besuchen,   da fühlt ihr euch am besten
Am*
Dann fordert ihr mit Nachdruck, verurteilt und betont
    F                              G/F
Tut so, als wär das ganze Land von Schwachköpfen bewohnt


Refrain 2
          C                  G
Und ihr beschließt, die Erde wird ein besserer Ort
           Am            D
Ja, und natürlich glaube ich euch jedes Wort
             C                        G
Wenn es mir schlecht geht, dann macht ihr mir wieder Mut
                Am           D
Weil ihr doch pausenlos der Menschheit Gutes tut




Refrain 3:
           C
Alles wird gut
(Alles wird gut)
            G
Alles wird gut
(Alles wird gut)
          Dm    F
Alles wird guuut
      C
Alles wird gut
(Alles wird gut)
            G
Alles wird gut
(Alles wird guuut)
        Dm        
Oh, ich finde jeden Tag so toll 
     F
Ich frag mich, wo das enden soll

1) + 2) 

1)||: Am* F  Am* F :||


2) Solo
  1:------------------|------------------|-----------------|------------------|
  2:-6-5---6-5--------|-6-5--------------|---------------5-|---5-6-5-6-8~-8---|
  3:-----5-----5------|-----5--------4~--|-4-5-4-5-7-5-7---|-7--------------5-|
  4:-------------7~-7-|-------7~-5-7---7-|-----------------|------------------|
  5:------------------|------------------|-----------------|------------------|
  6:------------------|------------------|-----------------|------------------|

  1:-5-5-----5-5------|-5-5-----5-5------|-8-8-8-7-5---8-8-|-8-7-5-7-8-7-8-10-|
  2:-----5-------5----|-----6-------6----|-----------5~----|------------------|
  3:-------5~------5~-|-------5~------5~-|-----------------|------------------|
  4:------------------|------------------|-----------------|------------------|
  5:------------------|------------------|-----------------|------------------|
  6:------------------|------------------|-----------------|------------------|

  1:-8-10-12-10-12-15-12-17\-|
  2:-------------------------|
  3:-------------------------|
  4:-------------------------|
  5:-------------------------|
  6:-------------------------|



Refrain 1:

           C                 G
Ihr habt gesagt, es wird den Armen besser gehn
          Am                 D
Aber bis jetzt ist noch kein Unterschied zu sehn
             C                   G
Doch ich bin sicher, euch trifft wieder keine Schuld
          Am                  D   
Und darum übe ich mich weiter in Geduld
                  D
Denn alles wird gut



Refrain 3:
           C
Alles wird gut
(Alles wird gut)
            G
Alles wird gut
(Alles wird gut)
          Dm    F
Alles wird guuut
      C
Alles wird gut
(Alles wird gut)
            G
Alles wird gut
(Alles wird guuut)
           Dm     F  C   
alles wird gu-u-u-ut





Comments


Popular Farin Urlaub Racing Team tabs & chords
Jeden Tag Sonntag Bass Tabs
Sonne Bass Tabs
Der Papst Chords
Gluecklich Chords
Dermitder Tabs
Niemals Intro Tabs
Unscharf Tabs
Krieg Ukulele
Sonne Ukulele
Widmmawv Ukulele


Song lyrics



↑ Back to top | Tablatures and chords are parodies/interpretations of the original songs. You may use it for private study, scholarship, research or language learning purposes only
© 2014 AZChords.com Contact us | Privacy policy | DMCA | Add/correct tabs | Request tabs | Top 50 tabs