>
 >
Unter Wasser

Unter Wasser Bass Tabs

Farin Urlaub Racing Team - Unter Wasser chords, tabs, tablatures, lyrics

Guitar lessons | Add/correct | Request | Top 50 tabs Artists:  A B C D E F G H I J K L M N O P Q R S T U V W X Y Z 0-9

Unter Wasser Bass Tabs – Farin Urlaub Racing Team

CD, Sheet music, Poster

Do you like Unter Wasser? Share with your friends now
Bass TabsTabs
Tuning: Halb step down

You may add some ghost notes in verse 1 & 2.

If you need help with the timing you can watch my cover at

h = hammer on
p = pull off
x = stop note

Pre-Intro:      Intro[x2]:
Gb-------------|-------------------------------------|
Db-------------|-------------------------------------|
Ab-6-7--7-7-5--|-4-44h5p4-4x-44h5p444-44p5h4---------|
Eb-------------|-----------------------------55-555--|


[0:20 min.] Verse 1:
Gb----------------------------------|---------|
Db----------------------------------|---------|
Ab-4x-4x-4x-4x--44h5p444x--4h5p4----|---------|
Eb----------------------------------|-5-55----|

Gb----------------------------------|---------|
Db----------------------------------|---------|
Ab-4x44h5p4x---4x-4h5p444x--4h5p4---|---7-----|
Eb----------------------------------|-5---5---|

Gb----------------------------------|---------|
Db----------------------------------|---------|
Ab-4x-4h5~p4x-4x--4h5p444x--4h5p4---|---------|
Eb----------------------------------|-5-6-5---|

Gb----------------------------------|---------|
Db----------------------------------|---------|
Ab-4x44h5p4x---4x-4h5p444x--4h5p4---|----7----|
Eb----------------------------------|-55---5--|

Gb----------------------------------|---------|
Db----------------------------------|---------|
Ab-4x-44h5~p4x---4x-4h5p444x--4h5p4-|---------|
Eb----------------------------------|-55-6-5--|

Gb--------------------------------|r|---------|
Db--------------------------------|e|---------|
Ab-4x-44h5p4x--4x-44h5p444x-------|s|----77---|
Eb--------------------------------|t|-55----5-|


[0:47 min.] Chorus [x2]:
Gb---------------------------------------------------------------------------|
Db---------------------------------------------------------------------------|
Ab-4-4-4044-44-404-------------------7-7-777/99-/111111----------------------|
Eb------------------5-5-5055-55-505-----------------------7-77707-77-7-7-7---|
                                                 ^ that's 3x "11", not "1"

[Play Intro x2]

[1:20 min.] Verse 2:
Gb----------------------------------|---------|
Db----------------------------------|---------|
Ab-4x-4x-4x-4x--44h5p444x---4h5p4---|---------|
Eb----------------------------------|-5-55----|

Gb----------------------------------|---------|
Db----------------------------------|---------|
Ab-4x-44h5p4x--4x-4h5p444x---4h5p4--|---7-----|
Eb----------------------------------|-5---5---|

Gb----------------------------------|---------|
Db----------------------------------|---------|
Ab-4x-4p5~4x-4x-4p5h444x---4h5p4----|---------|
Eb----------------------------------|-5-6-5---|

Gb--------------------------------|r|---------|
Db--------------------------------|e|---------|
Ab-4x-44h5p4x--4x-44h5p444x-------|s|---------|
Eb--------------------------------|t|---------|

[Play Chorus x2]

[1:59 min.] Interlude:
Gb--------------------------------------|
Db--------------------------------------|
Ab--------------------------------------|
Eb-55-5-55-5-55-5-55-5-55-5-55-5--55-5--|

[2:04min. ][Play Intro x1]

[2:10 min.] 2nd Interlude:
Gb----------------------------|r|------14~-|
Db----------------------------|e|--/12-----|
Ab----------------------------|s|----------|
Eb-5-5-5-5-5-5-5-5-5-2~--/14--|t|----------|

[Play Intro x2]

[2:37 min.] Verse 3:
Gb------------------------------------------------------------------|
Db------------------------------------------------------------------|
Ab--9-99--7-9-99-9\--9-9-7-9-99-9\--4-44-0--4-44-0--4-44-0--4-44----|
Eb------------------------------------------------------------------|

Gb------------------------------------------------------------------|
Db------------------------------------------------------------------|
Ab--9-99--7-9-99-9\--9-9-7-9-99-9\--4-44--0--4-44-------------------|
Eb-------------------------------------------------4-4-4-4-4-4-402--|


[3:04 min.] [play Chorus x4]:
At the fourth time, the drums bring more density to the music by hitting the snare more 
often, fitting to that you can play more notes,
like that:
Gb----------------------------------------------------------------------------|
Db----------------------------------------------------------------------------|
Ab-4-444044-444404--------------------7-77777/9-999/111111--------------------|
Eb------------------5-555055-555505-------------------------7-7-7077-77-7-7---|

Ends with:
Gb---------------------------|
Db---------------------------|
Ab---------------------------|
Eb-55-5--55-5--55-5--55-2-2~-|





Comments


Popular Farin Urlaub Racing Team tabs & chords
Abschiedslied Chords
Apocalypse Wann Anders Chords
Atras Chords
Nichimgriff Chords
Phnomenal Egal Chords
Die Leiche Tabs
Dusche Tabs
Niemals Intro 1 Tabs
Immer Noch Ukulele
Pakistan Ukulele


Song lyrics



↑ Back to top | Tablatures and chords are parodies/interpretations of the original songs. You may use it for private study, scholarship, research or language learning purposes only
© 2014 AZChords.com Contact us | Privacy policy | DMCA | Add/correct tabs | Request tabs | Top 50 tabs