>
 >
Unsichtbar

Unsichtbar Guitar Tabs

Farin Urlaub Racing Team - Unsichtbar chords, tabs, tablatures, lyrics

Guitar lessons | Add/correct | Request | Top 50 tabs Artists:  A B C D E F G H I J K L M N O P Q R S T U V W X Y Z 0-9

Unsichtbar Guitar Tabs – Farin Urlaub Racing Team

CD, Sheet music, Poster

Do you like Unsichtbar? Share with your friends now
ChordsTabsUkulele
==========
(M/T:Urlaub)

Anm.: Standardstimmung (E-A-D-G-h-e)

   D   h   A   A2  Dj7 f#  E7
1:-2-|-2-|-0-|-0-|-2-|-2-|-0-|
2:-3-|-3-|-2-|-0-|-2-|-2-|-3-|
3:-2-|-4-|-2-|-2-|-2-|-2-|-1-|
4:-0-|-4-|-2-|-2-|-0-|-4-|-2-|
5:---|-2-|-0-|-0-|-0-|-4-|-2-|
6:---|---|---|---|---|-2-|-0-|

Intro:

D   Dj7   D   Dj7   D   h   D   h
              (Fill1)

Fill1: (wird von einer 2.Git. im Hintergrund gespielt)
   Dj7                             D
1:--------------------------------|--|
2:--------------------------------|--|
3:--------------------------------|--|
4:-5-5-5-5-5-5-5-5-4-4-4-4-2-2-2-2|0-|
5:--------------------------------|--|
6:--------------------------------|--|

1.Strophe:
D                           h                        D
  Du stehst grade mal sechs Meter oder so von mir entfernt,
                       h                              D
und ich hab aus meinen Fehlern leider wieder nichts gelernt.
                  h                               D
Wenn ich in Deine Richtung gucke, wird mir wieder klar:
                h
ich bin unsichtbaaar.



Refrain:
A                 A2      Dj7                  D        f#
  Und ich kann es nicht begreifen, ich kann es nicht verstehen,
                      Dj7        D                  A
und ich sag mir immer wieder: so kann's nicht weitergehen.
          A2      Dj7                D         f#
Ich warte auf ein Wunder und solange bleib ich hier.
                  Dj7             E7       A  A2  A  A2       
Ich warte auf ein Lächeln, einen Blick von Dir...



2.Strophe:
D                       h                                  D
  Bin ich wirklich so daneben, dass Du mich noch nicht mal siehst?
                     h                              D
Oder ist das Dein Programm, was Du mit jedem Mann abziehst?
                        h                            D
Ich kann nichts dagegen machen, es ist traurig, aber wahr:
                h
ich bin unsichtbaaar.



Refrain:
A                   A2       Dj7                  D        f#
  Und ich mach mich hier zum Affen, ich mach mich hier zum Heinz.
                   Dj7          D                A
Ist das jetzt etwa die berühmte Leichtigkeit des Seins?
              A2      Dj7                 D         f#
Und ich warte auf ein Wunder, und solange bleib ich hier.
                  Dj7                E7        A          
Ich warte auf ein Zeichen, auf einen Blick von Dir...


Solo: (4mal) 
   A              A2               A              A2
1:-------------------------------|-------------------------------|
2:-------------------------------|-------------------------------|
3:-9---9---9--9-9-7--7-7---7-7-7-|-6---6---6--6-6-7--7-7---7-7-7-|
4:-------------------------------|-------------------------------|
5:-7---7---7--7-7/5--5-5---5-5-5-|-4---4---4--4-4/5--5-5---5-5-5-|
6:-------------------------------|-------------------------------|
   D              Dj7              D              Dj7 
1:-------------------------------|-------------------------------|
2:-------------------------------|-------------------------------|
3:-9---9---9--9-9-7--7-7---7-7-7-|-6---6---6--6-6-7--7-7---7-7-7-|
4:-------------------------------|-------------------------------|
5:-7---7---7--7-7/5--5-5---5-5-5-|-4---4---4--4-4/5--5-5---5-5-5-|
6:-------------------------------|-------------------------------|


Refrain:
A                 A2      Dj7                 D            f#
  Und ich will es nicht begreifen, ich werd's niemals akzeptieren,
                         Dj7             D                A
und solang Du mich nicht wahrnimmst, hab ich nichts zu verlieren.
          A2      Dj7                D         f#
Ich warte auf ein Wunder und solange bleib ich hier.
                  Dj7                E7            A
Ich warte auf ein Lächeln, auf einen Blick von von Dir,
    A2              A      
auf einen Blick von Dir,
    A2              A
auf einen Blick von Dir.





Comments


Popular Farin Urlaub Racing Team tabs & chords
Der Ziemlich Okaye Popsong 1 Chords
Phnomenal Egal Chords
Porzellan Chords
Zu Heiss Chords
Gluecklich Tabs
Immer Noch Tabs
Nichimgriff Tabs
Phanomenal Egal 1 Tabs
Alle Dasselbe Ukulele
Glcklich Ukulele


Song lyrics



↑ Back to top | Tablatures and chords are parodies/interpretations of the original songs. You may use it for private study, scholarship, research or language learning purposes only
© 2014 AZChords.com Contact us | Privacy policy | DMCA | Add/correct tabs | Request tabs | Top 50 tabs