>
 >
Sonne 3

Sonne 3 Bass Tabs

Farin Urlaub Racing Team - Sonne 3 chords, tabs, tablatures, lyrics

Guitar lessons | Add/correct | Request | Top 50 tabs Artists:  A B C D E F G H I J K L M N O P Q R S T U V W X Y Z 0-9

Sonne 3 Bass Tabs – Farin Urlaub Racing Team

CD, Sheet music, Poster

Do you like Sonne 3? Share with your friends now
Bass TabsBass Tabs v2Bass Tabs v3ChordsUkulele
                      Farin Urlaub - Sonne


Intro/Strophe: x8
Gb----------------------------------------------------------------------|
Db--9999-99-999-9999-7777-77-777-7777------------------5555-55-555-4400-|
Ab------------------------------------7777-77-777-7755------------------|
Eb----------------------------------------------------------------------|

Refrain 1: (sehr sehr schnell!!!)
Gb----------------------------------------------------------|
Db----0242---0242---4575---4575---2352---2352---6796---6796-|
Ab--22-----22-----55-----55-----33-----33-----77-----77-----|
Eb----------------------------------------------------------|

Gb-----------------------------------------------|
Db----0242---0242---4575---4575---2352---2352----|
Ab--22-----22-----55-----55-----33-----33--------|
Eb--------------------------------------------3~-|

Strophe: x4

Refrain 2:
Gb----------------------------------------------------------|
Db----0242---0242---4575---4575---2352---2352---6796---6796-|
Ab--22-----22-----55-----55-----33-----33-----77-----77-----|
Eb----------------------------------------------------------|

Gb----------------------------------------------------------|
Db----0242---0242---4575---4575---2352---2352---------------|
Ab--22-----22-----55-----55-----33-----33-------2352---2352-|
Eb--------------------------------------------33-----33-----|

Refrain 1

Bridge:
Gb------------------------------------------------|
Db------------------------------------------------|
Ab--22-22-22-2-2-22-22-22-22-2-2-22-22-22-22-2-2--|
Eb------------------------------------------------|

Gb-------------------------------------------------------|
Db-------------------------------------------------------|
Ab--22-22-22-22-2-2--22-22-22-22-2-2--22-22-22-22-2-2-22-|
Eb-------------------------------------------------------|

Gb-------------------------------------------------------------------| x3
Db--999999999999-777777777777----------------------------------------|
Ab----------------------------999999999999-101010101010101010101010--|
Eb-------------------------------------------------------------------|

Gb-------------------------------------------------------|
Db-------------------------------------------------------|
Ab-------------------------------------------------------|
Eb--777777777777-555555555555-222222222222-333333xx3xx3--|

Gb---------------------------------------------------------|
Db---------------------------------------------------------|
Ab-----------------------------------------7~----7~----7~--|
Eb--777777777777-555555555555-222222222222-0~----0~----0~--|

Refrain 2: x2

End
Peace älf b.





Comments


Popular Farin Urlaub Racing Team tabs & chords
Ok 3 Bass Tabs
Sonne 2 Bass Tabs
Ein-personen-aufstand Chords
Nichimgriff Chords
Unscharf Chords
Abschiedslied Ukulele
Am Strand Ukulele
Atem Ukulele
Buch Zum Lesen Ukulele
Die Leiche Ukulele


Song lyrics



↑ Back to top | Tablatures and chords are parodies/interpretations of the original songs. You may use it for private study, scholarship, research or language learning purposes only
© 2014 AZChords.com Contact us | Privacy policy | DMCA | Add/correct tabs | Request tabs | Top 50 tabs