» » »

Petze Tabs (ver.1)

Artists:  A B C D E F G H I J K L M N O P Q R S T U V W X Y Z # 

Petze Tabs (ver.1)

Farin Urlaub Racing Team
Rating:
0/5 (0 votes)

Hard to play? Try these video lessons and learn fast.
                (Intro)
Intro 1 (1x)

e|---------------------------------|
h|-6-6-6-6-6-6-6-6-6-6-6-6-6-6-6-6-|
g|---------------------------------|
d|---------------------------------|
A|---------------------------------|
E|---------------------------------|

Intro 2 (4x)

e|-----------------------------------|
h|-----------------------------------|
g|-----------------------------------|
d|--3-3-3-4-----6-4-6-6-3-4-6-4-3----|
A|--1-1-----4-4-----4-4-----------4--|
E|----------2-2----------------------|
            
Hard to play? Try these video lessons and learn fast. | Correct




comments powered by Disqus
↑ Back to top | Tablatures and chords are parodies/interpretations of the original songs. You may use it for private study, scholarship, research or language learning purposes only