>
 >
Nichimgriff

Nichimgriff Guitar Tabs

Farin Urlaub Racing Team - Nichimgriff chords, tabs, tablatures, lyrics

Guitar lessons | Add/correct | Request | Top 50 tabs Artists:  A B C D E F G H I J K L M N O P Q R S T U V W X Y Z 0-9

Nichimgriff Guitar Tabs – Farin Urlaub Racing Team

CD, Sheet music, Poster

Do you like Nichimgriff? Share with your friends now
ChordsTabsTabs v2Ukulele
Intro

Guitar 1

e------------------------------|
h------------------------------|
g-141414-1212121212-888-777-55-|
d--x-x-x--x-x-x-x-x-xxx-xxx-xx-|
a-121212-1010101010-666-555-33-|
e------------------------------| 4x

Guitar 2

e------------------------------|
h------------------------------|
g-------------------888-777-55-|
d-------------------888-777-55-|
a-------------------666-555-33-|
e------------------------------| 4x

Guitar 1

e--------------------------------|
h--------------------------------|
g--------------------------------|
d--------------------------------|
a-777-78-77-7875-777-78-75-8-888-|
e-555-56-55-5653-555-56-53-6-666-| 2x

Guitar 2

e--------------------------------|
h--------------------------------|
g--------------------------------|
d--------------------------------|
a-777-78-77-7875-777-78-75-8-888-|
e-555-56-55-5653-555-56-53-6-666-| 2x

Verse 1

Guitar 1

e------------------------------------|
h------------------------------------|
g------------------------------------|
d------------------------------------|
a-77777777777777-7875-8888-88-8-88-8-|
e-55555555555555-5653-6666-66-6-66-6-| 2x

Guitar 2

e------------------------------------|
h------------------------------------|
g------------------------------------|
d------------------------------------|
a-77777777777777-7875-8888-88-8-88-8-|
e-55555555555555-5653-6666-66-6-66-6-| 2x

Bridge 1

Guitar 1

e----------------------------------------------|
h----------------------------------------------|
g----------------------------------------------|
d----------------------------------------------|
a-555555555555-7777-88888888-10101010-11111111-|
e-333333333333-5555-66666666-8-8-8-8--9-9-9-9--| 1x

Guitar 2

e----------------------------------------------|
h----------------------------------------------|
g----------------------------------------------|
d----------------------------------------------|
a-555555555555-7777-88888888-10101010-11111111-|
e-333333333333-5555-66666666-8-8-8-8--9-9-9-9--| 1x

Refrain 1

Guitar 1

e----------------------------------------------------------------------|
h----------------------------------------------------------------------|
g----------------------------------------------------------------------|
d-7777777777777777777777777777-10101010--------------------------------|
a-5555555555555555555555555555-8-8-8-8--777-78-77-7875-777-78-75-8-888-|
e---------------------------------------555-56-55-5653-555-56-53-6-666-| 1x

Guitar 2

e---------------------------------------555-56-55-5653-555-56-53-6-666-|
h----------------------------------------------------------------------|
g----------------------------------------------------------------------|
d-7777777777777777777777777777-10101010--------------------------------|
a-5555555555555555555555555555-8-8-8-8---------------------------------|
e----------------------------------------------------------------------| 1x

Guitar 1

e---------------------------------------|
h---------------------------------------|
g---------------------------------------|
d-7777777777777777777777777777-10101010-|
a-5555555555555555555555555555-8-8-8-8--|
e---------------------------------------| 1x

Guitar 2

e---------------------------------------|
h---------------------------------------|
g---------------------------------------|
d-7777777777777777777777777777-10101010-|
a-5555555555555555555555555555-8-8-8-8--|
e---------------------------------------| 1x

Bridge 2

Guitar 1

e------------------------------------------------------------------|
h------------------------------------------------------------------|
g-1414141414141414141414141414141414141414141414141414141414141414-
d--x-x-x-x-x-x-x-x-x-x-x-x-x-x-x-x-x-x-x-x-x-x-x-x-x-x-x-x-x-x-x-x-
a-1212121212121212121212121212121212121212121212121212121212121212-
e------------------------------------------------------------------ 1x

Guitar 1


e---------------------------------------------------------------|
h---------------------------------------------------------------|
g---------------------------------------------------------------|
d---------------------------------------------------------------|
a-777-78-77-7875-777-78-75-8-888-777-78-77-7875-777-78-75-8-888-|
e-555-56-55-5653-555-56-53-6-666-555-56-55-5653-555-56-53-6-666-| 1x

Guitar 2

e------------------------------------------------------------------|
h------------------------------------------------------------------|
d--------------------------------1515-1414-1212-9-1515-1414-1212-9-|
d---------------------------------x-x--x-x--x-x-x--x-x--x-x--x-x-x-|
a--------------------------------1313-1212-1010-7-1313-1212-1010-7-|
e------------------------------------------------------------------|

Verse 2

e-----------------------------------------------------------------------|
h-----------------------------------------------------------------------|
g-----------------------------------------------------------------------|
d-----------------------------------------------------------------------|
a-77777777777777-7875-8888-88-8-88-8-77777777777777-7875-8888-88-8-88-8-|
e-55555555555555-5653-6666-66-6-66-6-55555555555555-5653-6666-66-6-66-6-| 1x

e------------------------------------12------10-12-9-5-55-6-5-3-5-------|
h-----------------------------------------------------------------------|
g-----------------------------------------------------------------------|
d-----------------------------------------------------------------------|
a-77777777777777-7875-8888-88-8-88-8------------------------------------|
e-55555555555555-5653-6666-66-6-66-6------------------------------------| 1x

Bridge 3

Guitar 1

e----------------------------------------------|
h----------------------------------------------|
g----------------------------------------------|
d----------------------------------------------|
a-555555555555-7777-88888888-10101010-11111111-|
e-333333333333-5555-66666666-8-8-8-8--9-9-9-9--| 1x

Guitar 2

e----------------------------------------------|
h----------------------------------------------|
g----------------------------------------------|
d----------------------------------------------|
a-555555555555-7777-88888888-10101010-11111111-|
e-333333333333-5555-66666666-8-8-8-8--9-9-9-9--| 1x

Refrain 2

Guitar 1

e----------------------------------------------------------------------|
h----------------------------------------------------------------------|
g----------------------------------------------------------------------|
d-7777777777777777777777777777-10101010--------------------------------|
a-5555555555555555555555555555-8-8-8-8--777-78-77-7875-777-78-75-8-888-|
e---------------------------------------555-56-55-5653-555-56-53-6-666-| 1x

Guitar 2

e---------------------------------------555-56-55-5653-555-56-53-6-666-|
h----------------------------------------------------------------------|
g----------------------------------------------------------------------|
d-7777777777777777777777777777-10101010--------------------------------|
a-5555555555555555555555555555-8-8-8-8---------------------------------|
e----------------------------------------------------------------------| 1x

Guitar 1

e---------------------------------------|
h---------------------------------------|
g---------------------------------------|
d-7777777777777777777777777777-10101010-|
a-5555555555555555555555555555-8-8-8-8--|
e---------------------------------------| 1x

Guitar 2

e---------------------------------------|
h---------------------------------------|
g---------------------------------------|
d-7777777777777777777777777777-10101010-|
a-5555555555555555555555555555-8-8-8-8--|
e---------------------------------------| 1x

Bridge 4

Guitar 1

e-5555-5653-5555-56535-10101010-9999-56535-10101010-9999-56535-|
h--------------------------------------------------------------|
g--------------------------------------------------------------|
d--------------------------------------------------------------|
a--------------------------------------------------------------|
e--------------------------------------------------------------| 1x

Guitar 1

e-5555-5653-5555-56535-10101010-9999-56535-10101010-9999-56535-|
h--------------------------------------------------------------|
g--------------------------------------------------------------|
d--------------------------------------------------------------|
a--------------------------------------------------------------|
e--------------------------------------------------------------| 1x

Guitar 2

e--------------------------------------------------------------|
h--------------------------------------------------------------|
g--------------------------------------------------------------|
d--------------------------------------------------------------|
a-7777777-78-77777777-12121212-11111111------12121212-11111111-|
e-5555555-56-55555555-10101010-9-9-9-9-------10101010-9-9-9-9--| 1x

Refrain 3

Guitar 1

e----------------------------------------------------------------------|
h----------------------------------------------------------------------|
g----------------------------------------------------------------------|
d-7777777777777777777777777777-10101010--------------------------------|
a-5555555555555555555555555555-8-8-8-8--777-78-77-7875-777-78-75-8-888-|
e---------------------------------------555-56-55-5653-555-56-53-6-666-| 1x

Guitar 2

e---------------------------------------555-56-55-5653-555-56-53-6-666-|
h----------------------------------------------------------------------|
g----------------------------------------------------------------------|
d-7777777777777777777777777777-10101010--------------------------------|
a-5555555555555555555555555555-8-8-8-8---------------------------------|
e----------------------------------------------------------------------| 1x

Guitar 1

e---------------------------------------|
h---------------------------------------|
g---------------------------------------|
d-7777777777777777777777777777-10101010-|
a-5555555555555555555555555555-8-8-8-8--|
e---------------------------------------| 1x

Guitar 2

e---------------------------------------|
h---------------------------------------|
g---------------------------------------|
d-7777777777777777777777777777-10101010-|
a-5555555555555555555555555555-8-8-8-8--|
e---------------------------------------| 1x

Outro

Guitar 1

e------------------------------------------------------------------|
h------------------------------------------------------------------|
g-1414141414141414141414141414141414141414141414141414141414141414-
d--x-x-x-x-x-x-x-x-x-x-x-x-x-x-x-x-x-x-x-x-x-x-x-x-x-x-x-x-x-x-x-x-
a-1212121212121212121212121212121212121212121212121212121212121212-
e------------------------------------------------------------------ 1x

e------------------------------|
h------------------------------|
g-141414-1212121212-888-777-55-|
d--x-x-x--x-x-x-x-x-xxx-xxx-xx-|
a-121212-1010101010-666-555-33-|
e------------------------------| 2x

Guitar 2

e------------------------------|
h------------------------------|
g-------------------888-777-55-|
d-------------------888-777-55-|
a-------------------666-555-33-|
e------------------------------| 2x

End on

e---
h---
g---
d---
a-7-
e-5-





Comments


Popular Farin Urlaub Racing Team tabs & chords
Nichimgriff Chords
Phnomenal Egal Chords
Sonne Chords
Zu Heiss Chords
Die Leiche Tabs
Mehr Tabs
Wo Ist Das Problem Tabs
Bewegungslos Ukulele
Der Ziemlich Okaye Popsong Ukulele
Porzellan Ukulele


Song lyrics



↑ Back to top | Tablatures and chords are parodies/interpretations of the original songs. You may use it for private study, scholarship, research or language learning purposes only
© 2014 AZChords.com Contact us | Privacy policy | DMCA | Add/correct tabs | Request tabs | Top 50 tabs