>
 >
Mehr

Mehr Guitar Tabs

Farin Urlaub Racing Team - Mehr chords, tabs, tablatures, lyrics

Guitar lessons | Add/correct | Request | Top 50 tabs Artists:  A B C D E F G H I J K L M N O P Q R S T U V W X Y Z 0-9

Mehr Guitar Tabs – Farin Urlaub Racing Team

CD, Sheet music, Poster

Do you like Mehr? Share with your friends now
Tabs
====
(M/T:Urlaub)

Anm.: Die Gitarre muss einen Halbton tiefer gestimmt werden. 

   E   F#  h   A   A2  D   A'  E'  F#' 
1:---|---|---|---|-0-|---|---|-0-|---|
2:---|---|---|---|-0-|---|-2-|-0-|-2-|
3:---|---|-4-|-2-|-2-|-7-|-2-|-1-|-3-|
4:-2-|-4-|-4-|-2-|-2-|-7-|-2-|-2-|-4-|
5:-2-|-4-|-2-|-0-|-0-|-5-|-0-|-2-|-4-|
6:-0-|-2-|---|---|---|---|---|-0-|-2-|

Intro: (12x)
1:---------------------------------|
2:---------------------------------|
3:---------------------------------|
4:---------------------------------|
5:-4-4---2-4-4---2-4-4---2-4-2-5-2-|
6:-2-2---0-2-2---0-2-2---0-2-0-3-0-|
   p.m............................


Intro 2: (8x)
1:---------------------------------|
2:---------------------------------|
3:---------------------------------|
4:-4-4---2-4-4---2-4-4---2-4-2-5-2-|
5:-4-4---2-4-4---2-4-4---2-4-2-5-2-|
6:-2-2---0-2-2---0-2-2---0-2-0-3-0-|


(setzt beim 5.mal "Intro 2" ein)
1:---------------4---------------3---------------1----------------|
2:----------------------------------------------------------------|
3:-4---4---4---4---3---3---3---3---2---2---2---2---1---1---0---0--|
4:----------------------------------------------------------------|
5:----------------------------------------------------------------|
6:----------------------------------------------------------------|



1.Strophe: (1.und 2.Zeile mit Intro)
    F#
Ich weiß, du hast mich sehr vermisst.

Die lange Zeit des Wartens ist vorbei.
  h               A              A2
Damit du mich nie mehr vergisst,
h               D             F# (Intro 2)
  heißt es heut wieder: FEUER FREI!

1:-----------------|
2:-f5--------------|
3:----f5-----------| (bin mir nich ganz sicher)
4:---------f5------|
5:--------------f5-|
6:-----------------|

F# (Intro)
Sperr jetzt deine Wohnung zu,

und wirf den Schlüssel aus dem Fenster raus,
     h                    A    A2
denn dieser Tonträger und Du,
h            D            F# (Intro 2)
  sind ab sofort allein zuhaus.



Refrain:
A'      E'         F#'
  Alles Andere ist jetzt egal.
A'             E'           F#'
  Der Rest der Welt ist sekundär.
A'      E'                F#'
  Hör genau zu, denn zum zweiten Mal,
A'        E                                 F# (Intro 2)
  geb ich alles ..... und noch ein bisschen mehr.

1:-------------|
2:-------------|
3:-------------|
4:-4-2---------|
5:-----4-2---4-|
6:---------4---|


2.Strophe
   F# (Intro)
Du hast in der Vergangenheit,

genügend Zeit gehabt, um fremdzugehen.
      h                    A           A2
ach, scheiß was drauf - es ist so weit,
h           D                    F# (Intro 2)            
  ich bin zurück, du darfst durchdrehen.



Refrain:
A'        E'               F#'    
  Total genial, brutal und kolossal,
A'            E'               F#'
  und noch bescheidener als bisher.
A'         E'                 F#'
  Gott ist neidisch, denn zum zweiten Mal,
A'        E                                 F# (Intro 2)
  geb ich alles ..... und noch ein bisschen mehr.





Comments


Popular Farin Urlaub Racing Team tabs & chords
Sonne Bass Tabs
Abschiedslied Chords
Alle Dasselbe Chords
Nichimgriff Chords
Frauenfluesterer Tabs
Wo Ist Das Problem Tabs
Zehn Tabs
Gluecklich Ukulele
Krieg Ukulele
Phnomenal Egal Ukulele


Song lyrics



↑ Back to top | Tablatures and chords are parodies/interpretations of the original songs. You may use it for private study, scholarship, research or language learning purposes only
© 2014 AZChords.com Contact us | Privacy policy | DMCA | Add/correct tabs | Request tabs | Top 50 tabs