» » »

Krieg Tabs (ver.1)

Artists:  A B C D E F G H I J K L M N O P Q R S T U V W X Y Z # 

Krieg Tabs (ver.1)

Farin Urlaub Racing Team
Rating:
4/5 (5 votes)

Hard to play? Try these video lessons and learn fast.
                Mein Tab für "Krieg" von dem Farin Urlaub Racing Team

-------------------------------------------------------------------------------
-------------------------------------------------------------------------------

Tuning:EADGBE


Stimmung ist NICHT die Farin Urlaub Zombie Stimmung, sondern ganz Normal
 EADGBE (Wenn ihr es trotzdem in der Zombie Stimmung spielen wollt, einfach
 alle Töne und Akkorde natürlich einen Halbton höher ;) )

Intro
e|----------------------------------------------------------------|
B|----------------------------------------------------------------|
G|----------------------------------------------------------------|
D|---4---4---4---4---4---4---4---2---4---4---4---4---4---4---4---2|
A|---------------------------------2-------2-------2-------2---0--|
E|-2-------2-------2-------2---0----------------------------------|

Verse
e|----------------------------------------------------------------|
B|----------------------------------------------------------------|
G|----------------------------------------------------------------|
D|---4---4---4---4---4---4---4---2---4---4---4---4---4---4---4---2|
A|---------------------------------2-------2-------2-------2---0--|
E|-2-------2-------2-------2---0----------------------------------|x5
                                                          Ich war heut in der Stadt...

Pre-Chorus/Bridge
e|-2-2-2-2-2-2-2-2-2-2-2-2-2-2-2-2---2-2-2-2-2-2-2-2-2-2-2-2-2-2-2-2|
B|-3-3-3-3-3-3-3-3-3-3-3-3-3-3-3-3---4-4-4-4-4-4-4-4-4-4-4-4-4-4-4-4|
G|-2-2-2-2-2-2-2-2-2-2-2-2-2-2-2-2---4-4-4-4-4-4-4-4-4-4-4-4-4-4-4-4|
D|-0-0-0-0-0-0-0-0-0-0-0-0-0-0-0-0---4-4-4-4-4-4-4-4-4-4-4-4-4-4-4-4|
A|-----------------------------------2-2-2-2-2-2-2-2-2-2-2-2-2-2-2-2|
E|------------------------------------------------------------------|
Doch die Nachfrage war größer als das Angebot...

e|-2-2-2-2-2-2-2-2-2-2-2-2-2-2-2-2--0-0-0-0-0-0-0-0--0--0--x-x-x-x-|
B|-3-3-3-3-3-3-3-3-3-3-3-3-3-3-3-3--0-0-0-0-0-0-0-0--0--0--x-x-x-x-|
G|-2-2-2-2-2-2-2-2-2-2-2-2-2-2-2-2--1-1-1-1-1-1-1-1--1--1--x-x-x-x-|
D|-0-0-0-0-0-0-0-0-0-0-0-0-0-0-0-0--2-2-2-2-2-2-2-2--2--2--x-x-x-x-|
A|----------------------------------2-2-2-2-2-2-2-2--2--2--x-x-x-x-|
E|----------------------------------0-0-0-0-0-0-0-0--0--0--x-x-x-x-|
                                                 Und das bedeutet

Refrain
(Hört euch den Rhytmus selber raus, is so was swingendes, das sind auf jedenf fall 
die akkorde ;) )
e|-2-2-2-2-2-2-2-2-2-2-2-2-2-2-2-2--0-0-0-0-0-0-0-0-0-0-0-0-0-0-0-0-|
B|-3-3-3-3-3-3-3-3-3-3-3-3-3-3-3-3--0-0-0-0-0-0-0-0-0-0-0-0-0-0-0-0-|
G|-4-4-4-4-4-4-4-4-4-4-4-4-4-4-4-4--1-1-1-1-1-1-1-1-1-1-1-1-1-1-1-1-|
D|-4-4-4-4-4-4-4-4-4-4-4-4-4-4-4-4--2-2-2-2-2-2-2-2-2-2-2-2-2-2-2-2-|
A|-2-2-2-2-2-2-2-2-2-2-2-2-2-2-2-2--2-2-2-2-2-2-2-2-2-2-2-2-2-2-2-2-|
E|----------------------------------0-0-0-0-0-0-0-0-0-0-0-0-0-0-0-0-|x2
Krieg...

Keyboard Fill
e|----------------------------------------------------------------|
B|----------------------------------------------------------------|
G|----------------------------------------------------------------|
D|---4---4---4---4---4---4---4---2---4---4---4---4---4---4---4---2|
A|---------------------------------2-------2-------2-------2---0--|
E|-2-------2-------2-------2---0----------------------------------|

Verse
e|----------------------------------------------------------------|
B|----------------------------------------------------------------|
G|----------------------------------------------------------------|
D|---4---4---4---4---4---4---4---2---4---4---4---4---4---4---4---2|
A|---------------------------------2-------2-------2-------2---0--|
E|-2-------2-------2-------2---0----------------------------------|x3

Pre-Chorus/Bridge
e|-2-2-2-2-2-2-2-2-2-2-2-2-2-2-2-2---2-2-2-2-2-2-2-2-2-2-2-2-2-2-2-2|
B|-3-3-3-3-3-3-3-3-3-3-3-3-3-3-3-3---4-4-4-4-4-4-4-4-4-4-4-4-4-4-4-4|
G|-2-2-2-2-2-2-2-2-2-2-2-2-2-2-2-2---4-4-4-4-4-4-4-4-4-4-4-4-4-4-4-4|
D|-0-0-0-0-0-0-0-0-0-0-0-0-0-0-0-0---4-4-4-4-4-4-4-4-4-4-4-4-4-4-4-4|
A|-----------------------------------2-2-2-2-2-2-2-2-2-2-2-2-2-2-2-2|
E|------------------------------------------------------------------|
Ich bin nur ein Mann aber auch ich hab Gefühle...

e|-2-2-2-2-2-2-2-2-2-2-2-2-2-2-2-2--0-0-0-0-0-0-0-0--0--0--0--0-|
B|-3-3-3-3-3-3-3-3-3-3-3-3-3-3-3-3--0-0-0-0-0-0-0-0--0--0--0--0-|
G|-2-2-2-2-2-2-2-2-2-2-2-2-2-2-2-2--1-1-1-1-1-1-1-1--1--1--1--1-|
D|-0-0-0-0-0-0-0-0-0-0-0-0-0-0-0-0--2-2-2-2-2-2-2-2--2--2--2--2-|
A|----------------------------------2-2-2-2-2-2-2-2--2--2--2--2-|
E|----------------------------------0-0-0-0-0-0-0-0--0--0--0--0-|
                                                 Und das bedeutet
Refrain
e|-2-2-2-2-2-2-2-2-2-2-2-2-2-2-2-2--0-0-0-0-0-0-0-0-0-0-0-0-0-0-0-0-|
B|-3-3-3-3-3-3-3-3-3-3-3-3-3-3-3-3--0-0-0-0-0-0-0-0-0-0-0-0-0-0-0-0-|
G|-4-4-4-4-4-4-4-4-4-4-4-4-4-4-4-4--1-1-1-1-1-1-1-1-1-1-1-1-1-1-1-1-|
D|-4-4-4-4-4-4-4-4-4-4-4-4-4-4-4-4--2-2-2-2-2-2-2-2-2-2-2-2-2-2-2-2-|
A|-2-2-2-2-2-2-2-2-2-2-2-2-2-2-2-2--2-2-2-2-2-2-2-2-2-2-2-2-2-2-2-2-|
E|----------------------------------0-0-0-0-0-0-0-0-0-0-0-0-0-0-0-0-|x2
Krieg...

Extrateil
e|-2--2-2--0--0-0--2--2-2-2--2-2-2--2-2-2-2-2-|
B|-2--2-2--0--0-0--4--4-4-4--4-4-4--4-4-4-4-4-|
G|-3--3-3--1--1-1--4--4-4-4--4-4-4--4-4-4-4-4-|
D|-4--4-4--2--2-2--4--4-4-4--4-4-4--4-4-4-4-4-|
A|-4--4-4--2--2-2--2--2-2-2--2-2-2--2-2-2-2-2-|
E|-1--1-1--0--0-0-----------------------------|x4
Krieg in der Stadt...

e|-2-2-2-2-2-2-2-2-2-2-2-2-2-2-2-2--2-2-2-2-2-2-2-2-2-2-2-2-2-2-2-2|
B|-3-3-3-3-3-3-3-3-3-3-3-3-3-3-3-3--4-4-4-4-4-4-4-4-4-4-4-4-4-4-4-4|
G|-2-2-2-2-2-2-2-2-2-2-2-2-2-2-2-2--4-4-4-4-4-4-4-4-4-4-4-4-4-4-4-4|
D|-0-0-0-0-0-0-0-0-0-0-0-0-0-0-0-0--4-4-4-4-4-4-4-4-4-4-4-4-4-4-4-4|
A|----------------------------------2-2-2-2-2-2-2-2-2-2-2-2-2-2-2-2|
E|-----------------------------------------------------------------|
Es ist Krieg wenn ein Mensch auf den Andern schießt...

e|-2-2-2-2-2-2-2-2-2-2-2-2-2-2-2-2--0-0-0-0-0-0-0-0-0-0-0-0--0--0-|
B|-3-3-3-3-3-3-3-3-3-3-3-3-3-3-3-3--0-0-0-0-0-0-0-0-0-0-0-0--0--0-|
G|-2-2-2-2-2-2-2-2-2-2-2-2-2-2-2-2--1-1-1-1-1-1-1-1-1-1-1-1--1--1-|
D|-0-0-0-0-0-0-0-0-0-0-0-0-0-0-0-0--2-2-2-2-2-2-2-2-2-2-2-2--2--2-|
A|----------------------------------2-2-2-2-2-2-2-2-2-2-2-2--2--2-|
E|----------------------------------0-0-0-0-0-0-0-0-0-0-0-0--0--0-|
                                    Darum kriegen wir niemals genug vom Krieg!

Gitarre 1:
e|----------------------------------------------------------------|
B|----------------------------------------------------------------|
G|----------------------------------------------------------------|
D|---4---4---4---4---4---4---4---2---4---4---4---4---4---4---4---2|
A|---------------------------------2-------2-------2-------2---0--|
E|-2-------2-------2-------2---0----------------------------------|x2

Gitarre 2:

e|-14-(14)--12-(12)----------------------------|
B|-------------------14-(14)--12-(12)----------|
G|-------------------------------------14-(14)-|
D|---------------------------------------------|
A|---------------------------------------------|
E|---------------------------------------------|x2

Im Hintergrund spielt eine Akksustikgitarre noch ein F#m und ein B Abwechselnd.

Danach kommt ein Bläser Fill und dann

Refrain
e|-2-2-2-2-2-2-2-2-2-2-2-2-2-2-2-2--0-0-0-0-0-0-0-0-0-0-0-0-0-0-0-0-|
B|-3-3-3-3-3-3-3-3-3-3-3-3-3-3-3-3--0-0-0-0-0-0-0-0-0-0-0-0-0-0-0-0-|
G|-4-4-4-4-4-4-4-4-4-4-4-4-4-4-4-4--1-1-1-1-1-1-1-1-1-1-1-1-1-1-1-1-|
D|-4-4-4-4-4-4-4-4-4-4-4-4-4-4-4-4--2-2-2-2-2-2-2-2-2-2-2-2-2-2-2-2-|
A|-2-2-2-2-2-2-2-2-2-2-2-2-2-2-2-2--2-2-2-2-2-2-2-2-2-2-2-2-2-2-2-2-|
E|----------------------------------0-0-0-0-0-0-0-0-0-0-0-0-0-0-0-0-|x2

e|-2-2-2-2-2-2-2-2-2-2-2-2-2-2-2-2--2-2-2-2-2-2-2-2-2-2-2-2-2-2-2-2-|
B|-3-3-3-3-3-3-3-3-3-3-3-3-3-3-3-3--2-2-2-2-2-2-2-2-2-2-2-2-2-2-2-2-|
G|-2-2-2-2-2-2-2-2-2-2-2-2-2-2-2-2--2-2-2-2-2-2-2-2-2-2-2-2-2-2-2-2-|
D|-0-0-0-0-0-0-0-0-0-0-0-0-0-0-0-0--4-4-4-4-4-4-4-4-4-4-4-4-4-4-4-4-|
A|----------------------------------4-4-4-4-4-4-4-4-4-4-4-4-4-4-4-4-|
E|----------------------------------2-2-2-2-2-2-2-2-2-2-2-2-2-2-2-2-|
Krieg...                       mehr Krieg...

Outro
e|----------------------------------------------------------------|
B|----------------------------------------------------------------|
G|----------------------------------------------------------------|
D|---4---4---4---4---4---4---4---2---4---4---4---4---4---4---4---2|
A|---------------------------------2-------2-------2-------2---0--|
E|-2-------2-------2-------2---0----------------------------------|

e|---------------------------------------------------------------|
B|---------------------------------------------------------------|
G|---------------------------------------------------------------|
D|---4---4---4---4---4---4---4---2---4---4---4---4---4---4-7-4-2-|
A|---------------------------------2-------2-------2-----2-5-2-0-|
E|-2-------2-------2-------2---0---------------------------------|
            
Hard to play? Try these video lessons and learn fast. | Correct




comments powered by Disqus
↑ Back to top | Tablatures and chords are parodies/interpretations of the original songs. You may use it for private study, scholarship, research or language learning purposes only