>
 >
Ich Gehoere Nich Dazu

Ich Gehoere Nich Dazu Guitar Tabs

Farin Urlaub Racing Team - Ich Gehoere Nich Dazu chords, tabs, tablatures, lyrics

Guitar lessons | Add/correct | Request | Top 50 tabs Artists:  A B C D E F G H I J K L M N O P Q R S T U V W X Y Z 0-9

Ich Gehoere Nich Dazu Guitar Tabs – Farin Urlaub Racing Team

CD, Sheet music, Poster

Do you like Ich Gehoere Nich Dazu? Share with your friends now
Tabs
Interpret: Farin Urlaub
Titel:     Ich gehöre nicht dazu

_*_*_*_*_*_*_*_*_*_*_*_*_*_*_*_*_*_*_*_*_*_*_*_*_*_*_*_*_*_*_*_*_*_*_*_*_*_*

Intro: 2x

a				G	   F				
-----5-----------------|-----3-----------------|
-----5-x-6-5-x---------|-----3-x-6-6-/8-6------|
---5-----------7-5-----|---4-------------------|
/7---------------------|/5---------------------|
-----------------------|-----------------------|
-----------------------|-----------------------|


a				G	   F
-----5-----------------|-----3---x-1-----------|
-----5-x-6-5-x---------|-----3---x-1-----------|
---5-----------7-5-----|---4-------------------|
/7---------------------|/5---------------------|
-----------------------|-----------------------|
-----------------------|-----------------------|

a-G-F   x4

Strophe:
--------
        a                             C
es gibt leute, die können tanzen, ich gehöre nicht dazu
        G					  D
denn ich hab zwei linke füße, tanzen ist für mich tabu
	  a				    C							
auf ner guter-tänzer-skala (eingeteilt von 1 bis 10)
	 G			    D
wäre ich bei minus 7, nur damit wir uns verstehn


Bridge:
-------
		F
wie joe cocker auf speed, immer neben dem beat
	G
ich zucke mit den gliedern und weiß nicht, wie mir geschieht:


Refrain:
--------

        a			   G			d		   a
ist das dein arsch oder meiner, der mir hier den weg versperrt?
	    a			   G			e		   a
ist das dein arsch oder meiner? ich weiß nicht, wem er gehört
        a			   G			  d		   a
ist das dein arsch oder meiner? ich hab den überblick verloren
	  a			    G		    F
und ich sag mal, eins steht einwandfrei fest:
	     e
zum tanzen bin ich nicht geboren

a				G	   F				
-----5-----------------|-----3-----------------|
-----5-x-6-5-x---------|-----3-x-6-6-/8-6------|
---5-----------7-5-----|---4-------------------|
/7---------------------|/5---------------------|
-----------------------|-----------------------|
-----------------------|-----------------------|


a				G	   F
-----5-----------------|-----3---x-1---1-1---1-|
-----5-x-6-5-x---------|-----3---x-1---1-1---1-|
---5-----------7-5-----|---4-------------------|
/7---------------------|/5---------------------|
-----------------------|-----------------------|
-----------------------|-----------------------|

a-G-F
a-G-F

Strophe:
--------
        a                  			  C
ich bin reich, ich seh gut aus, ich spiel gitarre in ner band
	G				    D
aber mit dem tanzen haperts, habe ich das schon erwähnt?
    a							   C
als gott das rhythmusgefühl verteilt hat war ich wohl grad nicht hier
		 G				   D
und dass man ohne mich gut tanzen kann,   sieht man an mir

Bridge:
-------
	     F
ich torkel rum wie erfroren, mir dröhnen die ohren
	     G
hab die kontrolle über alle meine körperteile verloren

Refrain:
--------
        a			   G			d		   a
ist das dein arsch oder meiner, der mir hier den weg versperrt?
	    a			   G			e		   a
ist das dein arsch oder meiner? ich weiß nicht, wem er gehört
        a			   G		   d	  	         a
ist das dein arsch oder meiner? es ist echt ein dickes ding
    a			    G		        F
und eins steht leider nicht zur diskussion:
	    e
im tanzen bin ich nicht der king

a				G	   F				
-----5-----------------|-----3-----------------|
-----5-x-6-5-x---------|-----3-x-6-6-/8-6------|
---5-----------7-5-----|---4-------------------|
/7---------------------|/5---------------------|
-----------------------|-----------------------|
-----------------------|-----------------------|

a				G	   F
-----5-----------------|-----3---x-1-----------|
-----5-x-6-5-x---------|-----3---x-1-----------|
---5-----------7-5-----|---4-------------------|
/7---------------------|/5---------------------|
-----------------------|-----------------------|
-----------------------|-----------------------|

!!!Solotime!!!

a				G	   F				
-----5-----------------|-----3-----------------|
-----5-x-6-5-x---------|-----3-x-6-6-/8-6------|
---5-----------7-5-----|---4-------------------|
/7---------------------|/5---------------------|
-----------------------|-----------------------|
-----------------------|-----------------------|

				       
a				G	   F
-----5-----------------|-----3----------------------|
-----5-x-6-5-x---------|-----3----------------------|
---5-----------7-5-----|---4------------------------|
/7---------------------|/5------7-7-7-7-7-7-7-7-7-7-|
-----------------------|----------------------------|
-----------------------|----------------------------|

a					    G		       F
---------------------------------|---------------------------------|
---------------------------------|---------------------------------|
---------------------------------|-4---4---4---4-5-----------------|
-5^7-7-7-7-7-7-7-5^7-7-7-7-7-7-7-|-----------5---------------------|
---------------------------------|---------------------------------|
---------------------------------|---------------------------------|

a					    G			   
---------------------------------|---------------------------------|
----10----10----10----10----10---|-13p10-13p10-13p10-13b15-13b15-13|
-9-----9-----9-----9-----9-------|------9------9-------------------|
---------------------------------|---------------------------------|
---------------------------------|---------------------------------|
---------------------------------|---------------------------------|

 F		   d
---------------------------------|
-(13)b15..........r--------------|
---------------------------------|
---------------------------------|
---------------------------------|
---------------------------------|
			tanzen und ich, wir sind wie -
C	    G
feuer und eis
			d			 C		  G
wenn ich die tanzfläche betrete, bau ich nur noch scheiß


Bridge:
-------
	F
die musik find ich gut und ich sag mir: "nur mut!"
	   G
mein problem ist folgendes - ich hab den rhythmus nicht im blut


Refrain:
--------
        a			   G			d		   a
ist das dein arsch oder meiner, der mir hier den weg versperrt?
	    a			   G			e		   a
ist das dein arsch oder meiner? ich weiß nicht, wem er gehört
        a			   G			  d		   a
ist das dein arsch oder meiner? ich dachte meiner wäre kleiner
	  a			   G		e
ist das dein arsch oder meiner     (dein arsch oder meiner...)



        h			   A			e		   h
ist das dein arsch oder meiner, der sich so unrhythmisch bewegt?
	    h			   A			f#		   h
ist das dein arsch oder meiner, der hier solche schatten schlägt?
      h		     A		 e		   h
	dein arsch oder meiner? wo ist hinten wo ist vorn?
	  h			    A		    G
und ich sag mal, eins steht einwandfrei fest:
		f#				h
zum tanzen bin ich nicht geboren


*_*_*_*_*_*_*_*_*_*_*_*_*_*_*_*_*_*_*_*_*_*_*_*_*_*_*_*_*_*_*_*_*_*_*_*_*_*_*

Tab from Kl!nW69r..

Thank you for using this tab. :)





Comments


Popular Farin Urlaub Racing Team tabs & chords
Jeden Tag Sonntag Bass Tabs
Ok 3 Bass Tabs
Atem 2 Chords
Der Papst Chords
Ein-personen-aufstand Chords
Ok Tabs
Bewegungslos Ukulele
Niemals Ukulele
Sonne Ukulele
Xenokratie Ukulele


Song lyrics



↑ Back to top | Tablatures and chords are parodies/interpretations of the original songs. You may use it for private study, scholarship, research or language learning purposes only
© 2014 AZChords.com Contact us | Privacy policy | DMCA | Add/correct tabs | Request tabs | Top 50 tabs