>
 >
Die Leiche

Die Leiche Guitar Tabs

Farin Urlaub Racing Team - Die Leiche chords, tabs, tablatures, lyrics

Guitar lessons | Add/correct | Request | Top 50 tabs Artists:  A B C D E F G H I J K L M N O P Q R S T U V W X Y Z 0-9

Die Leiche Guitar Tabs – Farin Urlaub Racing Team

CD, Sheet music, Poster

Do you like Die Leiche? Share with your friends now
ChordsChords v2TabsUkulele
Farin Urlaub Racing Team - Die Leiche

Wie (bei FU übliche) Zombie-Stimmung: Eb Ab Db Gb B Eb

Der Einfachheit halber sind die Akkorde notiert, als wären sie in normaler Stimmung.

Grundbausteine (Akkorde mit * haben nicht die richtigen Namen):

B1:
  e             Asus2         G             H*
|-------------|-------------|-------------|-------------|
|-------0-----|-------0-----|-------0-----|-------0-----|
|-----0---0---|-----2---2---|-----0---0---|-----0---0---|
|---2-------2-|---2-------2-|---0-------0-|---4-------4-|
|-------------|-0-----------|-------------|-2-----------|
|-0-----------|-------------|-3-----------|-------------|

B2:
  C             D*            e             h
|-------------|-------------|-------------|-------------|
|-------1-----|-------0-----|-------0-----|-------3-----|
|-----0---0---|-----0---0---|-----0---0---|-----4---4---|
|---2-------2-|---4-------4-|---2-------2-|---4-------4-|
|-3-----------|-5-----------|-------------|-2-----------|
|-------------|-------------|-0-----------|-------------|

  C             D             e
|-------------|-2-----------|-------------|-------------|
|-------1-----|-3-----------|-------0-----|-------0-----|
|-----0---0---|-2-----------|-----0---0---|-----0---0---|
|---2-------2-|-------------|---2-------2-|---2-------2-|
|-3-----------|-------------|-------------|-------------|
|-------------|-------------|-0-----------|-0-----------|

Intro:
e Asus2 G H* (2x)

   e                       Asus2
Es schwimmt eine Leiche im Teich.
           G
Mein Blick fiel aus dem Fenster,
    H*
ich sah sie sofort.

   e                       Asus2
Es schwimmt eine Leiche im Teich.
         G
Wars vielleicht nur Unfall,
     H*
oder war es ein Mord?

    C
Sie schwimmt auf dem Bauch.
        D*
Und von hier sieht es so aus,
    e      h
als ob sie döst.

    C
Ein friedlicher Anblick,
    D                         e
sie wirkt fast ein bisschen erlöst.

Es schwimmt eine Leiche im Teich.
Ich sitz auf dem Rasen,
ein Hund läuft vorbei.

Es schwimmt eine Leiche im Teich.
Wahrscheinlich holt gleich jemand
die Polizei.

Ich würde sie dir so gern zeigen,
aber du bist nicht hier.
Bist plötzlich verschwunden,
ich hoffe dir ist nichts passiert.

Es schwimmt eine Leiche im Teich.
Ich sitze im Schatten,
und schaue ihr zu.

Es schwimmt eine Leiche im Teich.
Sie hat deine Figur
und sie trägt deine Schuh.

Ich werde ein klein wenig traurig,
warum nur, ich weiß es nicht.
Ich glaube, ein bisschen
erinnert sie mich an dich.

Es schwimmt eine Leiche im Teich.
Ob sie irgendwer sucht,
ob sie jemand vermisst?

Es schwimmt eine Leiche im Teich.
Ich würd dich gern fragen,
ob du weißt wer sie ist.

Ich warte seit Tagen auf dich,
und ich frage mich, wo du bleibst.
Ich gebe die Hoffnung nicht auf,
dass du wenigstens schreibst.

Es schwimmt eine Leiche im Teich.
Ich hab mich gefragt,
warum niemand was macht.

Es schwimmt keine Leiche im Teich.
Denn ich grub ein Loch in die Erde,
in finsterer Nacht.

Ich trug sie ins Grab.
Sie war nass und so kalt,
es war trotzdem schön.

Es war ziemlich dunkel,
ich hab ihr Gesicht nicht gesehen.

    C                           D*
Ich weiß zwar nicht wo du jetzt bist,
                     e          h
doch ich hoff, du vergisst mich nicht.
     C
Denn bis du zurückkommst,
  D
solang werd ich warten
    e     H*
auf dich,
    e     H*
auf dich,
    e     H* e
auf dich.





Comments


Popular Farin Urlaub Racing Team tabs & chords
Ein-personen-aufstand 1 Chords
Pakistan Chords
Petze Chords
Sonne Chords
Xenokratie Chords
Phanomenal Egal Tabs
Wo Ist Das Problem Tabs
Am Strand Ukulele
Gluecklich Ukulele
Phnomenal Egal Ukulele


Song lyrics



↑ Back to top | Tablatures and chords are parodies/interpretations of the original songs. You may use it for private study, scholarship, research or language learning purposes only
© 2014 AZChords.com Contact us | Privacy policy | DMCA | Add/correct tabs | Request tabs | Top 50 tabs