>
 >
Bewegungslos

Bewegungslos Guitar Tabs

Farin Urlaub Racing Team - Bewegungslos chords, tabs, tablatures, lyrics

Guitar lessons | Add/correct | Request | Top 50 tabs Artists:  A B C D E F G H I J K L M N O P Q R S T U V W X Y Z 0-9

Bewegungslos Guitar Tabs – Farin Urlaub Racing Team

CD, Sheet music, Poster

Do you like Bewegungslos? Share with your friends now
ChordsTabsUkulele
### Farin Urlaub Racing Team - Bewegungslos
### Nichimgriff - CD Single
### Release: 17.10.2008

Tuning: 1/2 Step Down

/ = Slide Up
\ = Slide Down

Chords:
    E'  E5   E/Eb5   E   H   H5   A   A'   C#5   F#5   G
eb|-0----------------7---2--------0--------------------3--|
Bb|-0----------------9---4--------2---14---------------3--|
Gb|-1---9------8-----9---4---4----2---14----6----------0--|
Db|-2---9------9-----9---4---4----2---14----6-----4----0--|
Ab|-2---7------6-----7---2---2----0---12----4-----4----2--|
Eb|-0---------------------------------------------2----3--|

Intro:
     E                 H         A     E                 H         A
eb|---------------------------------|------------------------------------------|
Bb|---------------------------------|------------------------------------------|
Gb|-11--11--11-13-13---8---8-8-9-6--|-11--11--11-13-13---8---8-8-9-6-----------|
Db|---------------------------------|------------------------------------------|
Ab|--9---9---9-11-11---6---6-6-7-4--|--9---9---9-11-11---6---6-6-7-4-----------|
Eb|---------------------------------|---------------------------------5-4-0----|
     E                 H            A     E                  H         A
eb|------------------------------------|---------------------------------------|
Bb|------------------------------------|---------------------------------------|
Gb|-11--11--11-13/14\13---8---8-8-9-6--|-11--11--11-13/14\13-11\9-8---8-8-9-6--|
Db|------------------------------------|---------------------------------------|
Ab|--9---9---9-11/12\11---6---6-6-7-4--|--9---9---9-11/12\11--9\7-6---6-6-7-4--|
Eb|------------------------------------|---------------------------------------|
    G         A    E                      E                 H         A
eb|----------------0-------------------|---------------------------------------|
Bb|----------------0-------------------|---------------------------------------|
Gb|----------------1-------------------|-11--11--11-13-13---8---8-8-9-6--------|
Db|-5--5--5-5-7----2---let ring--------|---------------------------------------|
Ab|----------------2-------------------|--9---9---9-11-11---6---6-6-7-4--------|
Eb|-3--3--3-3-5----0-------------------|---------------------------------------|
     E                    H         A     E                  H            A
eb|------------------------------------|----------------------------------0---------|
Bb|------------------------------------|----------------------------------2---14----|
Gb|-11--11--11-13/14\13---8---8-8-9-6--|-11--11--11-13-13---8---8-8-9-6---2---14----|
Db|------------------------------------|----------------------------------2---14----|
Ab|--9---9---9-11/12\11---6---6-6-7-4--|--9---9---9-11-11---6---6-6-7-4---0---12----|
Eb|------------------------------------|----------------------------------0---------|


           E5
Du hattest Recht
         E/Eb5                        C#5
Als Du gesagt hast es wäre gar nicht schlecht
         F#             H               E5
Nur noch das zu tun was uns tatsächlich freut
             E/Eb5                      C#5
Denn wer nur schweigt weil er Konflikte scheut
          F#            H5           E5
Der macht Sachen die er hinterher bereut
               E/Eb5                       C#5
Und das ist verkehrt, denn es ist nicht so schwer
      F#5             H5             E5
Jeden Tag zu tun als ob's der letzte wär
                    E/Eb5                    C#5     H5
Und du schaust mich an und fragst ob ich das kann
        A5                 H5             E5
Und ich denk ich werd mich ändern, irgendwann

C A E'
C A E'
C A A'

             E5
Jetzt ist es Nacht
             E/Eb5                    C#5
Wir ham geschlafen und nicht daran gedacht
        F#5             H5            E5
Dass es keinen gibt der hier über uns wacht
                  E/Eb5                       C#5
Jetzt bleibt kaum Zeit, die Luft wird langsam knapp
      F#5             H5              E5
Wir umarmen uns, denn dies wird unser Grab
            E/Eb5         C#5
Für die Ewigkeit in Dunkelheit
       F#5         H5          E5
Wir verharren in Bewegungslosigkeit
         E/Eb5             C#5    H5
Wie totgebor'n, wie eingefror'n,
         A5                H5             E5         C A E'  C A E'
Noch ein letzter Kuss und dann sind wir bereeeeeeeeeeeeeeit...





Comments


Popular Farin Urlaub Racing Team tabs & chords
Atem Chords
Bewegungslos Chords
Kein Zuruck 3 Chords
Niemals Chords
Wie Ich Den Marilyn Manson Aehnlichkeits - Wettbewerb Verlor Chords
Wunderbar Chords
Zehn Live Tabs
Niemals Ukulele
Wie Ich Den Marilyn Manson Aehnlichkeits - Wettbewerb Verlor Ukulele
Xenokratie Ukulele


Song lyrics



↑ Back to top | Tablatures and chords are parodies/interpretations of the original songs. You may use it for private study, scholarship, research or language learning purposes only
© 2014 AZChords.com Contact us | Privacy policy | DMCA | Add/correct tabs | Request tabs | Top 50 tabs