» » »

Nichts Ist Ok Tabs (ver.1)

Artists:  A B C D E F G H I J K L M N O P Q R S T U V W X Y Z # 

Nichts Ist Ok Tabs (ver.1)

Farin Urlaub
Rating:
0/5 (0 votes)

Hard to play? Try these video lessons and learn fast.
                Farin Urlaub 
G-Dur
OK


E|----------------------------------------------------|
H|----------------------------------------------------|
G|-------------5-5-5-5-5------------------4-4-4-4-4---|
D|-2-2-2-2-2---5-5-5-5-5------5-5-5-5-5---4-4-4-4-4---|
A|-2-2-2-2-2---3-3-3-3-3------5-5-5-5-5---2-2-2-2-2---|
E|-0-0-0-0-0------------------3-3-3-3-3---------------|

E|------------------------------------------------------------|
H|------------------------------------------------------------|
G|-------------5-5-5-5-5------------------4-4-4-4-4--b4-------|
D|-2-2-2-2-2---5-5-5-5-5------5-5-5-5-5---4-4-4-4-4-----4-----|
A|-2-2-2-2-2---3-3-3-3-3------5-5-5-5-5---2-2-2-2-2-------2---|
E|-0-0-0-0-0------------------3-3-3-3-3-----------------------|

E|----------------------------------------------------|
H|----------------------------------------------------|
G|-------------5-5-5-5-5------------------4-4-4-4-4---|
D|-2-2-2-2-2---5-5-5-5-5------5-5-5-5-5---4-4-4-4-4---|
A|-2-2-2-2-2---3-3-3-3-3------5-5-5-5-5---2-2-2-2-2---|
E|-0-0-0-0-0------------------3-3-3-3-3---------------|

E|-------------------------------|
H|-------------------------------|
G|-------------5-5-5-5-5---------|
D|-2-2-2-2-2---5-5-5-5-5------5--|
A|-2-2-2-2-2---3-3-3-3-3------5--|
E|-0-0-0-0-0------------------3--|

Gesang

Bass:
G|-------------------------------------------------|
D|-------------------------------------------------|
A|------------3-3-3-3-3-------------2-2-2-2-2------|
E|-0-0-0-0----------------3-3-3-3------------------|


Beschissen.....
E|---------------------------------------|(Dies klingt ein bischen falsch, hab aber keine andere Lösung gefunden)
H|o-------------------------------------o|
G|---------------------------------------|
D|-----223322--223322--223322--223322----|
A|o--00------00-------------------------o|
E|-------------------33------33----------|

Bass:
G|-----------------------------------------------------|
D|o---------------------------------------------------o|
A|o--10-10--10-10-10-9--9--9-9-10-9-7--7---7--7--9-7--o|
E|-----------------------------------------------------|

G|------------------------------------|
D|------------------------------------|
A|--10-10--10-10-10-9--9--7-5--7------|
E|------------------------------------|

E|---------------------------------------------------|
H|---------------------------------------------------|
G|--9-9-9--9--9-9-9--7-7--5-5-5--5-5-5---------------|
D|--9-9-9--9--9-9-9--7-7--5-5-5--5-5-5---------------|
A|--7-7-7--7--7-7-7--5-5--3-3-3--3-3-3--3--3-5-3-----|
E|---------------------------------------------------|

E|------------------------12--------------------------------|
H|--------------------------12-------------------------12---|
G|-------------5-5-5-5-5------------------4-4-4-4-4--12-----|
D|-2-2-2-2-2---5-5-5-5-5------5-5-5-5-5---4-4-4-4-4---------|
A|-2-2-2-2-2---3-3-3-3-3------5-5-5-5-5---2-2-2-2-2---------|
E|-0-0-0-0-0------------------3-3-3-3-3---------------------|

Bass:
G|-------------------------------------------------|
D|-------------------------------------------------|
A|------------3-3-3-3-3-------------2-2-2-2-2------|
E|-0-0-0-0----------------3-3-3-3------------------|

Gefühle...
E|---------------------------------------|(Dies klingt ein bischen falsch, hab aber keine andere Lösung gefunden)
H|o-------------------------------------o|
G|---------------------------------------|
D|-----223322--223322--223322--223322----|
A|o--00------00-------------------------o|
E|-------------------33------33----------|

Bass:
G|-----------------------------------------------------|
D|o---------------------------------------------------o|
A|o--10-10--10-10-10-9--9--9-9-10-9-7--7---7--7--9-7--o|
E|-----------------------------------------------------|

G|------------------------------------|
D|------------------------------------|
A|--10-10--10-10-10-9--9--7-5--7------|
E|------------------------------------|
            
Hard to play? Try these video lessons and learn fast. | Correct




comments powered by Disqus
↑ Back to top | Tablatures and chords are parodies/interpretations of the original songs. You may use it for private study, scholarship, research or language learning purposes only