>
 >
Der Papst

Der Papst Guitar Tabs

Farin Urlaub - Der Papst chords, tabs, tablatures, lyrics

Guitar lessons | Add/correct | Request | Top 50 tabs Artists:  A B C D E F G H I J K L M N O P Q R S T U V W X Y Z 0-9

Der Papst Guitar Tabs – Farin Urlaub

CD, Sheet music, Poster

Do you like Der Papst? Share with your friends now
Tabs
(M/T: Urlaub)


Anm.:Die Begleitung ist mit Akustikgitarre(Stahl) und die Leadguitar elektrisch-clean
   A   D   D4 A/G#  h   E   f#
1:-0-|-2-|-3-|--0-|-2-|-0-|-2-|
2:-2-|-3-|-3-|--2-|-3-|-0-|-2-|
3:-2-|-2-|-2-|--2-|-4-|-1-|-2-|
4:-2-|-0-|-0-|--2-|-4-|-2-|-4-|
5:-0-|---|---|--x-|-2-|-2-|-4-|
6:---|---|---|--4-|---|-0-|-2-|


Intro:
-Da kann ich dir nur mit auf den Weg geben: Gelobe, und der Herr sei in dir drin!
   A                                            D
1:-------------------------------------------|-------------------------------------|
2:-------------------------------------------|-------------------------------------|
3:-----------------------------9-------------|-------------------------------------|
4:--9---11---11---11--9---11-------11-11-11--|--9---11---11---11--9--11---9/7---7--|
5:-------------------------------------------|-------------------------------------|
6:-------------------------------------------|-------------------------------------|

   A                                            D
1:-------------------------------------------|------------------------------------------|
2:-------------------------------------------|------------------------------------------|
3:-----------------------------9-------------|------------------------------------------|
4:--9---11---11---11--9---11-------11-11-11--|--9---11---11---11--12---11---7---9---7-7-|
5:-------------------------------------------|------------------------------------------|
6:-------------------------------------------|------------------------------------------|


1.Strophe:
A                           D
  wenn der papst katholisch wär
             D4               A
dann säh die welt ganz anders aus
                   D
er trüge eine hohe mütze
         D4           A
aufgrund seines körperbaus
     A/G#           D
alle menschen wären brüder
         D4             A
denn vor gott sind alle gleich
                          D
wenn der papst katholisch wär
         D4           h
würd ich meine sünden beichten
                         E
denn dann käm ich in den himmel
                        h
und nicht nur unter die erde
                      E
es wär alles nicht so schwer
                          A (-->Interlude)
wenn der papst katholisch wär


Interlude:
   A                                            D
1:-------------------------------------------|-------------------------------------|
2:-------------------------------------------|-------------------------------------|
3:-----------------------------9-------------|-------------------------------------|
4:--9---11---11---11--9---11-------11-11-11--|--9---11---11---11--12---11---7---9--|
5:-------------------------------------------|-------------------------------------|
6:-------------------------------------------|-------------------------------------|

   A                                            D
1:-------------------------------------------|------------------------------------------|
2:-------------------------------------------|------------------------------------------|
3:-----------------------------9-------------|------------------------------------------|
4:--9---11---11---11--9---11-------11-11-11--|--9---11---11---11--12---11---7---9---7-7-|
5:-------------------------------------------|------------------------------------------|
6:-------------------------------------------|------------------------------------------|


2.Strophe:
A                           D
  wenn der papst katholisch wär
       D4             A
gäb es keinen sex für ihn
                                 D
vielleicht ein küsschen hier und da
         D4            A
mehr wär absolut nicht drin
         A/G#          D              D4
schönste frauen würden ihm zwar pausenlos begegnen
A                           D
  er hätt nicht besseres zu tun
    D4
als sie zu segnen
h                       E                             h
  das täte er natürlich mit so einem ganz päpstlichem flair
                             E
er gäb sich christlich, aber fair
                          A (-->Interlude)
wenn der papst katholisch wär


Interlude:
   A                                            D
1:-------------------------------------------|-------------------------------------|
2:-------------------------------------------|-------------------------------------|
3:-----------------------------9-------------|-------------------------------------|
4:--9---11---11---11--9---11-------11-11-11--|--9---11---11---11--9--11---9/7---7--|
5:-------------------------------------------|-------------------------------------|
6:-------------------------------------------|-------------------------------------|

   A                                            D
1:-------------------------------------------|------------------------------------------|
2:-------------------------------------------|------------------------------------------|
3:-----------------------------9-------------|------------------------------------------|
4:--9---11---11---11--9---11-------11-11-11--|--9---11---11---11--12---11---7---9---7-7-|
5:-------------------------------------------|------------------------------------------|
6:-------------------------------------------|------------------------------------------|


Bridge:
f#          E               D
  und würde jauch ihn etwas fragen
        D4
kein problem er weiß es
f#             E              D
  im namen des vaters und des sohnes
        D4
und des heil'gen geistes
h                                  E
  dann wär der papst bald ziemlich reich
                      h
er wäre gameshowmillionär
                      E
das wär ok aber nicht sehr
                          A (-->Outro)
wenn der papst katholisch wär


Outro:
   A                                            D
1:-------------------------------------------|-------------------------------------|
2:-------------------------------------------|-------------------------------------|
3:-----------------------------9-------------|-------------------------------------|
4:--9---11---11---11--9---11-------11-11-11--|--9---11---11---11--9--11---9/7---7--|
5:-------------------------------------------|-------------------------------------|
6:-------------------------------------------|-------------------------------------|

   A                                            D
1:-------------------------------------------|-------------------------------------|
2:-------------------------------------------|-------------------------------------|
3:-----------------------------9-------------|-------------------------------------|
4:--9---11---11---11--9---11-------11-11-11--|--9---11---11---11--9--11---9/7---7--|
5:-------------------------------------------|-------------------------------------|
6:-------------------------------------------|-------------------------------------|
                                                               wenn er katholisch wär
   A                  A/C#                      D
1:-------------------------------------------|-------------------------------------|
2:-------------------------------------------|-------------------------------------|
3:-----------------------------9-------------|-------------------------------------|
4:--9---11---11---11--9---11-------11-11-11--|--9---11---11---11--9--11---9/7---7--|
5:-------------------------------------------|-------------------------------------|
6:-------------------------------------------|-------------------------------------|

   A                  A/C#                      D
1:-------------------------------------------|------------------------------------------|
2:-------------------------------------------|------------------------------------------|
3:-----------------------------9-------------|------------------------------------------|
4:--9---11---11---11--9---11-------11-11-11--|--9---11---11---11--12---11---7---9---7-7-|
5:-------------------------------------------|------------------------------------------|
6:-------------------------------------------|------------------------------------------|

h                        (A)   E
  was reimt sich bloß auf rosenkranz?





Comments


Popular Farin Urlaub tabs & chords
Abschiedslied Bass Tabs
Ok Bass Tabs
Apocalypse Wann Anders Chords
Immer Noch Chords
Petze Chords
Augenblick Tabs
Der Kavalier Tabs
Farin Urlaub's "Ok" Tabs
GlüCklich 1 Tabs
Ok 2 Tabs


Song lyrics



↑ Back to top | Tablatures and chords are parodies/interpretations of the original songs. You may use it for private study, scholarship, research or language learning purposes only
© 2014 AZChords.com Contact us | Privacy policy | DMCA | Add/correct tabs | Request tabs | Top 50 tabs