» » »

Far From Finished, Roses And Razorblades Bass tabs (ver.1)

Artists:  A B C D E F G H I J K L M N O P Q R S T U V W X Y Z # 

Roses And Razorblades Bass tabs (ver.1)

Far From Finished Tabs
Rating:
0/5 (0 votes)
Hard to play? Try these video lessons and learn fast.
                Far From Finished
Living in the Fallout
Roses and Razorblades


Intro(0:07):
---------------------|
---4(ring)-----------|
---------------------|
---------------------|


Verse(0:10):
--------------------------------------|
--------------------------------------|
---4---33-4-4----------111122223333---|
--------------44---2222---------------|


(0:15)
--------------------------------------|
--------------------------------------|
---4---33-4-4----------111122221111---|
--------------44---2222---------------|


(0:20)
--------------------------------------|
--------------------------------------|
---4---33-4-4----------111122223333---|
--------------44---2222---------------|

(0:25)
--------------------------------------|
--------------------------------------|
---4---33-4-4----------111122221111---|
--------------44---2222---------------|


Pre-Chorus(0:30):
--------------------------------------|
--------------------------------------|
---44444444--------66666666-----------|
-----------44444444--------22222222---|


(0:34)
--------------------------------------------|
--------------------------------------------|
---44444444---------------------------------|
-----------222222224444444444444444-44-44---|

Chorus(0:39):
--------------------------------------|
--------------------------------------|
---444444443333333311111111-----------|
---------------------------44444444---|


(0:44)
--------------------------------------|
--------------------------------------|
--------------------------------------|
---22222222222222224444444444444444---|

Verse(0:49)

Pre-Chorus(1:18)

Chorus(1:28)

(Repeat)Chorus (1:38)

Pre-Chorus(1:48)

Bridge(1:57):
--------------------------------------|
------------------344444443-----------|
-----------4444444---------44444444---|
---22222222---------------------------|


(2:02)
--------------------------------------|
--------------------------------------|
-------------334433-------------------|
---2222222244------2222222244444444---|


(2:07)
--------------------------------------|
--------------------------------------|
---4444444444444444-------------------|
-------------------4444444444444444---|


(2:12)
--------------------------------------------|
--------------------------------------------|
---1111111111111111-------------------------|
-------------------22222222222222222--------|


(2:17)
----------------------|
----------------------|
----------------------|
---4444444444444444---|


Bridge #2(2:19)

Just Guitar Until(2:36)
---------------|
---------------|
---------------|
---444444444---|


Repeat Chorus until the end of the song.

There are no more changes.
            

comments powered by Disqus
↑ Back to top | Far From Finished Bass for Roses And Razorblades. Lyrics for acoustic guitar and electric guitar. Tablatures and chords are parodies/interpretations of the original songs. You may use it for private study, scholarship, research or language learning purposes only