» » »

One Lifettime Tabs (ver.1)

Artists:  A B C D E F G H I J K L M N O P Q R S T U V W X Y Z # 

One Lifettime Tabs (ver.1)

Far From Finished
Rating:
0/5 (0 votes)

Hard to play? Try these video lessons and learn fast.
                Far From Finished
East Side of Nowhere
One Lifetime


Intro:

Guitar 1
-------------------------------------|
-------------------------------------|
---7-7-7-7-7-7-7-7-------------------|
---7-7-7-7-7-7-7-7-5-5-5-5-7-7-7-7---|
---5-5-5-5-5-5-5-5-5-5-5-5-7-7-7-7---| x2
-------------------3-3-3-3-5-5-5-5---|


Guitar 2
-----------3-2-0-----------0---------|
---3---------------3-----------------|
-------------------------------------|
-------------------------------------|
-------------------------------------| x2
-------------------------------------|


Verse:
-------------------------------------|
-------------------------------------|
---7-7-7-7-7-7-7-7-------------------|
---7-7-7-7-7-7-7-7-5-5-5-5-7-7-7-7---|
---5-5-5-5-5-5-5-5-5-5-5-5-7-7-7-7---| x4
-------------------3-3-3-3-5-5-5-5---|
  pm.............................pm

Pre-Chorus:
---------------------|
---------------------|
-----------7-7-------|
---5-5-5-5-7-7-7-7---|
---5-5-5-5-5-5-7-7---| x3
---3-3-3-3-----5-5---|


----------------------------------------------|
----------------------------------------------|
----------------------------------------------|
---5-------------------7----------------------|
---5-------------------7----------------------|
---3-------------------5----------------------|

Chorus:
------------------------------------------|
------------------------------------------|
---7-7-7-7--------------7-7-7-7-7-6-7-7---|
---7-7-7-7-5-5-7-7------7-7-7-7-7-6-7-7---|
---5-5-5-5-5-5-7-7-(x3)-5-5-5-5-5-4-5-5---|
-----------3-3-5-5------------------------|
            
Hard to play? Try these video lessons and learn fast. | Correct




comments powered by Disqus
↑ Back to top | Tablatures and chords are parodies/interpretations of the original songs. You may use it for private study, scholarship, research or language learning purposes only