» » »

9 Lives Tabs (ver.1)

Artists:  A B C D E F G H I J K L M N O P Q R S T U V W X Y Z # 

9 Lives Tabs (ver.1)

Far From Finished
Rating:
0/5 (0 votes)

Hard to play? Try these video lessons and learn fast.
                Far From Finished
East Side of Nowhere


Intro/Chorus:
---------------------------------------------------------------------|
---------------------------------------------------------------------|
---4-4-4-4-4-4-4-4---------------------------------9-9-9-9-9-9-9-9---|
---4-4-4-4-4-4-4-4-4-4-4-4-4-4-4-4-6-6-6-6-6-6-6-6-9-9-9-9-9-9-9-9---|
---2-2-2-2-2-2-2-2-4-4-4-4-4-4-4-4-6-6-6-6-6-6-6-6-7-7-7-7-7-7-7-7---|
-------------------2-2-2-2-2-2-2-2-4-4-4-4-4-4-4-4-------------------|


Verse:
-------------------------------------|
-------------------------------------|
---4-4-4-4---------4-4-4-4-----------|
---4-4-4-4-4-4-4-4-4-4-4-4-6-6-4-4---|
---2-2-2-2-4-4-4-4-2-2-2-2-6-6-4-4---|
-----------2-2-2-2---------4-4-2-2---|


Pre-Chorus:
--------------------------------------------------------------|
--------------------------------------------------------------|
------------------4-4-4-4-4-4-4-4-----------------------------|
---2--------------4-4-4-4-4-4-4-4-2---------------4-4-4-x-4---|
---2--------------2-2-2-2-2-2-2-2-2---------------4-4-4-x-4---|
---0------------------------------0---------------2-2-2-x-2---|

Bridge #1:
-------------------------------------------------------|
-------------------------------------------------------|
---4-4-------------4-4-------------4-4-----------------|
---4-4-----4-------4-4-----2-------4-4-----6-6-6-4-2---|
---2-2-----4-------2-2-----2-------2-2-----6-6-6-4-2---|
-------xxx-2-----------xxx-0-----------xxx-4-4-4-2-0---|


Bridge #2:
---------------------------------------------------------------------|
---------------------------------------------------------------------|
---4-4-4-4-4-4-4-4---------------------------------9-9-9-9-9-9-9-9---|
---4-4-4-4-4-4-4-4-4-4-4-4-4-4-4-4-6-6-6-6-6-6-6-6-9-9-9-9-9-9-9-9---|
---2-2-2-2-2-2-2-2-4-4-4-4-4-4-4-4-6-6-6-6-6-6-6-6-7-7-7-7-7-7-7-7---|
-------------------2-2-2-2-2-2-2-2-4-4-4-4-4-4-4-4-------------------|
   pmpm    pmpm    pmpm    pmpm    pmpm    pmpm
            
Hard to play? Try these video lessons and learn fast. | Correct




comments powered by Disqus
↑ Back to top | Tablatures and chords are parodies/interpretations of the original songs. You may use it for private study, scholarship, research or language learning purposes only