» » »

Faramarz Aslani, Divar Tabs (ver.1)

Artists:  A B C D E F G H I J K L M N O P Q R S T U V W X Y Z # 

Divar Tabs (ver.1)

Faramarz Aslani Tabs
 Rating:
4.4/5 (7 votes)
Divar lessons Tabs too difficult? Try these video lessons and learn fast
1
                Compsed and singed by: Faramarz Aslany



  Am      E             Dm                  Am      E               Dm                
E-5---3---1-----1---3---4---4p--3p--1---0---5---3---1-----1----3---4----4p--3p--1---0--|
B--------------------------------------------------------------------------------------|
G--------------------------------------------------------------------------------------|
D--------------------------------------------------------------------------------------|
A--------------------------------------------------------------------------------------|
E-5---3---1-----1---1---1---1---------------5---3---1-----1----1---1----1--------------|

    Am         E                  Dm      
E-5-----3-----1--------1----3----4-----4p--3p--1---0--------1|
B--------------------------------------------------------3---|
G-----------------------------------------------------2------|
D------------------------------------------------------------|
A------------------------------------------------------------|
E-5-----3-----1--------1----1----1-----1---------------------|

    Am         E                  Dm                                              Am   start
E-5-----3-----1--------1----3----4-----4p--3p--1---0-------------------------|I         0
B----------------------------------------------------------------------------|I        1
G----------------------------------------------------------------------------|I       2
D------------------------------------------------------2--4--3--2------------|I      2
A------------------------------------------------------------------4--2--0---|I     0
E-5-----3-----1--------1----1----1-----1-------------------------------------|I    0 
                                                      | V e r y Q u i c k |


 Rhumba (4/4)

	Ye Divare Ye Divare Ye Divare,        Ye Divaareh ke poshtesh hichi nadaareh
	Am                                    Am                  A7              Dm

	To ke divaaro pooshidan, siyah abroon, Nemiyaad digeh khorshid az tooshoon biroon
	      G                            C     F               E                      Am

	Ye parandas, ye parandas, ye parandas    Ye parandas ke az parvaze khod khastast
	Am                                         Am               A7              Dm

	Bonne baalesho bastan daste dirooza, nemiyaad digeh hataa be yaadesh fardaaa
	    G                             C     F                E               Am


E-5-----3-----1--------1----3----4-----4p--3p--1---0-|----------------------------|I
B----------------------------------------------------|----------------------------|I
G----------------------------------------------------|----------------------------|I
D----------------------------------------------------|--2--4--3--2----------------|I
A----------------------------------------------------|------------4--2--0---------|I
E-5-----3-----1--------1----1----1-----1-------------|----------------------------|I
  ^    Play two times then part two very quick     ^ 

	Ye rooz ye khooneyi bood ke taabestoonaash, roye poshte boomesh velo mishod khorshid
	Am   F                                  G         F                         E    Am

	Derakhte anjire piri ke too baagh bood, hammeye koodakihaaye manno midid
	Am    F                           G            F                   E  Am

	Ye avaaze Ye avaaze Ye avaaze        ye avaze ke to sinam shode anbar
        Am                                   Am              A7          Dm

	Ye ashke ke michake roie giutar, be inha ke aghebat ke girad in kar
             G                     c     F      E                     Am

	Ye mordae Ye mordabe Ye mordabe     Ye mordabe toie tan az faramoshie
         Am                                  Am              A7         Dm

	Ye cheraghie ke mire ro be khamoshi, nagardad shole ar bihode mikoshi
                G                     C         F              E        Am

E-5-----3-----1--------1----3----4-----4p--3p--1---0-|----------------------------|I
B----------------------------------------------------|----------------------------|I
G----------------------------------------------------|----------------------------|I
D----------------------------------------------------|--2--4--3--2----------------|I
A----------------------------------------------------|------------4--2--0---------|I
E-5-----3-----1--------1----1----1-----1-------------|----------------------------|I
  ^    Play two times then part two very quick     ^ 


	Ye rooz ye khooneyi bood ke taabestoonaash, rooye poshte boomesh velo mishod khor shid
	Am   F                                  G         F                            E    Am

	Derakhte anjire piri ke too baagh bood, hammeye koodakihaaye manno midid
	Am    F                           G            F                   E  Am

	Ye Divare Ye Divare Ye Divare,        Ye Divaareh ke poshtesh hichi nadaareh
	Am                                    Am                  A7              Dm

	To ke divaaro pooshidan, siyah abroon, Nemiyaad digeh khorshid az tooshoon biroon
	      G                            C     F               E                      Am

	Ye parandas, ye parandas, ye parandas    Ye parandas ke az parvaze khod khastast
	Am                                         Am               A7              Dm

	Bonne baalesho bastan daste dirooza, nemiyaad digeh hataa be yaadesh fardaaa
	    G                             C     F                E               Am

E-5-----3-----1--------1----3----4-----4p--3p--1---0--------1|
B--------------------------------------------------------3---|
G-----------------------------------------------------2------|
D------------------------------------------------------------|
A------------------------------------------------------------|
E-5-----3-----1--------1----1----1-----1---------------------|
                                                           
E-5-----3-----1--------1----3----4-----4p--3p--1---0---------1---------------|
B---------------------------------------------------------3-----3--------3---|
G------------------------------------------------------2----------2---2------|
D----------------------------------------------------------------------------|
A----------------------------------------------------------------------------|
E-5-----3-----1--------1----1----1-----1-------------------------------------|

Repeat it and End.
            
Submit corrections

comments powered by Disqus
↑ Back to top | Faramarz Aslani Tabs for Divar. Lyrics for acoustic guitar and electric guitar. 1 Tablatures and chords are parodies/interpretations of the original songs. You may use it for private study, scholarship, research or language learning purposes only