» » »

Wear It So Well Tabs (ver.1)

Artists:  A B C D E F G H I J K L M N O P Q R S T U V W X Y Z # 

Wear It So Well Tabs (ver.1)

Far
Rating:
0/5 (0 votes)

Hard to play? Try these video lessons and learn fast.
                Tuning: 	EBGDAD (Drop low E to D)

Beautiful song :)

Intro
E|-----------------------------------|
B|-----------------------------------|
G|----------7-7----------------------|
D|--4--4-0--7-7--0--4--4/7-7--7-0----|
A|--4--4-0--5-5--0--4--4/7-7--7-0----|
D|--4--4-0--0-0--0--4--4/7-7--7-0----|

Verse (let ring)
E|----------------------|
B|----------------------|
G|----------------------|
D|--4----0----4----0----|
A|--4----0----4----0----|
D|--4----0----4----0----|

Fill (during verses and chorus)
E|-------------------------------|
B|-------------------------------|
G|--7/9-9-9/-11-11-11/12-12-12---|
D|-------------------------------|
A|--5/7-7-7/-9--9--9-/10-10-10---|
D|-------------------------------|

Chorus (another play the fill sometimes)
E|--------------------------------------------------------------------|
B|--------------------------------------------------------------------|
G|--------------------------------------------------------------------|
D|--2-2-2-2-2-2-2-2/4-4-4-4-4-4-4-4/0-0-0-0-0-0-0-0-0-0-0-0-0-0-0-0---|
A|--2-2-2-2-2-2-2-2/4-4-4-4-4-4-4-4/0-0-0-0-0-0-0-0-0-0-0-0-0-0-0-0---|
D|--2-2-2-2-2-2-2-2/4-4-4-4-4-4-4-4/0-0-0-0-0-0-0-0-0-0-0-0-0-0-0-0---|

Stuff before chorus
E|--------------------|
B|--------------------|
G|--7---9---11--12----|
D|--------------------|
A|--5---7---9---10----|
D|--------------------|

Last chorus
E|------------------------------------------------------------------------------------|
B|------------------------------------------------------------------------------------|
G|------------------------------------------------------------------------------------|
D|--2-2-2-2-2-2-2-2/0-0-0-0-4-4-4-4/10-10-10-10-10-10-10-10-10-10-10-10-10-10-10-10---|
A|--2-2-2-2-2-2-2-2/0-0-0-0-4-4-4-4/10-10-10-10-10-10-10-10-10-10-10-10-10-10-10-10---|
D|--2-2-2-2-2-2-2-2/0-0-0-0-4-4-4-4/10-10-10-10-10-10-10-10-10-10-10-10-10-10-10-10---|
            
Hard to play? Try these video lessons and learn fast. | Correct




comments powered by Disqus
↑ Back to top | Tablatures and chords are parodies/interpretations of the original songs. You may use it for private study, scholarship, research or language learning purposes only